Oops, an error
Loading. Please wait.

Whom Shall I Fear intro tab

version 2
version 2

Intro

Whole song

1,027 views 9 this week
3 commentsread comments
1 2 3 4 5
x 13
add to favorites
×
Save as Personal and add changes to this tab that will be seen only by you. Learn more ›
×
You can save this tab as Personal to edit and correct it or add notes. All changes will be seen only by you. Learn more »
launch autoscroll
font size
0
reset
how to read this tab
guitar tuner
edit
Autoscroll
slow
fast
+/-
esc
set tempo
stop
Author
Difficulty
-------------------------------------------------------------------------------
                             Whom Shall I Fear - Chris Tomlin
-------------------------------------------------------------------------------
Tabbed by: RedStone MotorBoat
E-mail: james_nthegym@yahoo.com

Tuning:e,B,G,D,A,E

e|---------------------------------------10--10----------------------------------------------------------|
B|---------8-8----------8-8----------8-8---------8----------8--8---------8--8----------8--8--------------|
G|---10-----------10-----------10---------------------10------------10-----------10----------------------|
D|10----10-----10----10-----10----10---------------10----10------10----10-----10----10------9-10-9-10-7-5|
A|-------------------------------------------------------------------------------------------------------|
E|-------------------------------------------------------------------------------------------------------|


************************************

| /   slide up
| \   slide down
| h   hammer-on
| p   pull-off
| ~   vibrato
| +   harmonic
| x   Mute note
| b   Bend
| pb  Pre-bend
| br  Bend release
| pbr Pre-bend release
| brb Bend release bend

************************************
Suggest correction
Creating personal tab
Creating personal tab
You can edit any tab online and save it as your Personal.

You can edit, replace or remove any tab part or add personal notes – all changes will be seen only by you.

Personal tabs can be accessed anytime from any device, even offline.
Learn more »
comments
print report bad tab
3 comments total.
0 reply
bobqwaszx 10 May 01, 2016 10:09 AM

epic! nice job!

0 reply
thetntterror 10 May 27, 2016 07:18 AM

FINALLY! YOU DID IT! YOU FIGURED IT OUT! THANK YOU!

0 reply
bobjoe6463 10 May 27, 2016 07:31 AM

thank you man!

guest
You may want to rate the tab now too:
select rating
Wanna post a correction for this tab? Suggest correction