Oops, an error
Loading. Please wait.

Whom Shall I Fear Tab

version 1
version 1

Whole song

Video

36,094 views 42 this week
3 commentsread comments
1 2 3 4 5
accurate
x 9
add to favorites
launch autoscroll
font size
0
reset
how to read this tab
guitar tuner
Autoscroll
slow
fast
+/-
esc
set tempo
stop
Help us to improve Ultimate-Guitar.com Take our survey!
×
Author
Difficulty
novice
-----------------------------------------------------------------------------
                             Whom Shall I Fear Chris Tomlin
-----------------------------------------------------------------------------
E-mail:cahhenry@gmail.com

Standard Tuning

Intro:

e|--------------------------10--------|--------------------------------------|
B|------6-5-8-8-------------------8---|----6-5-8-8---------------------------|
G|---5--------------(x3)--------------|-5----------(x3)----4b----------------|
D|------------------------------------|--------------------------7--5--------|
A|------------------------------------|--------------------------------------|
E|------------------------------------|--------------------------------------|

Verse:

e|---------9----10-----------------------------------------------------------|
B|-5---5----------------------5---5---5---5---6---6---6----------------------|
G|---5---5---5------5---(x4)----5---5---5---5---5---5------------------------|
D|---------------------------------------------------------------------------|
A|---------------------------------------------------------------------------|
E|---------------------------------------------------------------------------|

e|---------9----10-----------------------------------------------------------|
B|-5---5----------------------5---5---5---5---6---6---6----------------------|
G|---5---5---5------5---(x4)----5---5---5---5---5---5------------------------|
D|---------------------------------------------------------------------------|
A|---------------------------------------------------------------------------|
E|---------------------------------------------------------------------------|

Chorus 1:

It sounds like the guitarist is playing a constant C (or 8) on the 1 string. But playing
power chords are nicer.

Am7         G       C
I know who goes before me
Am7         G       C
I know who stands behind
Am7         F                     G     C
The God of angel armies is always by my side
Am7         G       C
The One who reigns forever
Am7      G        C
He is a friend of mine
Am7         F                      G     C
The God of angel armies is always by my side

Repeat first half of intro, then onto verse 2.



Verse 2:

e|---8-8-8-10-12-10-8--------------------------------------------------------|
B|-8--------------------------8-8-8------------------------------------------|
G|---------------------(x7)--------------------------------------------------|
D|---------------------------------------------------------------------------|
A|---------------------------------------------------------------------------|
E|---------------------------------------------------------------------------|

Then back to Chorus 1

Bridge:

 F               C               G
And nothing formed against me shall stand
C                                F
You hold the whole world in Your hands
C                      Am7   G
I'm holding on to Your promises
        F
You are faithful
        G
You are faithful
 F               C               G
And nothing formed against me shall stand
C                                F
You hold the whole world in Your hands
C                      Am7   G
I'm holding on to Your promises
        F
You are faithful
        G
You are faithful
   Am7     G/B
You are faithful

Back to Chorus. After Chorus 1 go to Chorus 2 and end.

Chorus 2:

C
I know who goes before me
G/B
I know who stands behind
Am7                              F
The God of angel armies is always by my side
C
The One who reigns forever
G/B
He is a friend of mine
Am7                              F
The God of angel armies is always by my side
Am7            F                                             C
The God of angel armies is always by my side




Feel free to give constructive criticism because this is my first tab.

God bless,
Caleb



************************************

| /   slide up
| \   slide down
| h   hammer-on
| p   pull-off
| ~   vibrato
| +   harmonic
| x   Mute note
| b   Bend

************************************
Suggest correction
What's this?
You can suggest a correction to this tab. Community and Mods will review your correction and vote to approve or reject it.
comments
print report bad tab
3 comments total.
0 reply
uto998 634 wrote on February 6 2013, 03:25 pm

great tab, but the beginning is a little off. here's what sounded right to me:

e|----------------------------------10--|
B|---6---6---8-8---6---8-8---6---8-----8|
G|-----5---5-----5---5-----5---5--------|

0 reply
uto998 634 wrote on February 6 2013, 03:26 pm

and then the end part of the intro sounded more like:

e|----------------|
b|-----4h5p4------|
G|-----------7-5-4|

right at the very end, he goes lower, not higher =)

0 reply
Evenflo 39 wrote on July 4 2014, 05:20 pm

Hey guys,

Try this position.

E|-------------------------------------------10--10----------|
B|-----------------------------------------------------------|
G|----10p9h12-12----10p9h12-12----10p9h12-12---------12------|
D|-10------------10------------10----------------------------|
A|-----------------------------------------------------------|
E|-----------------------------------------------------------|

E|-----------------------------------------------------------|
B|-----------------------------------------------------------|
G|----10p9h12-12----10p9h12-12----10p9h12-12-----------------|
D|-10------------10------------10------------9B10B9-7-5------|
A|-----------------------------------------------------------|
E|-----------------------------------------------------------|

guest
You may want to rate the tab now too:
select rating
Please do not post tabs as comments. Select "correction" instead!