Oops, an error
Loading. Please wait.

Whom Shall I Fear tab

version 3
version 3

Whole song

Video

527 views 3 this week
no commentswrite comment
1 2 3 4 5
2 more votes to show rating
add to favorites
×
Save as Personal and add changes to this tab that will be seen only by you. Learn more ›
×
You can save this tab as Personal to edit and correct it or add notes. All changes will be seen only by you. Learn more »
launch autoscroll
font size
0
reset
how to read this tab
guitar tuner
edit
Autoscroll
slow
fast
+/-
esc
set tempo
stop
Author
-------------------------------------------------------------------------------
                    whom shall i fear - Chris Tomlin
-------------------------------------------------------------------------------
Tabbed by:
E-mail:
key of G
Tuning:E-A-D-G-B-e

e|---------------------------------------------------------------------------|
B|---------------------------------------------------------------------------|
G|---------------------------------------------------------------------------|
D|--0---0---0---0-----------0---0--0---0--------------0------0--0----0-------|
A|--2---2---2---2---2--2----2---2--2---2---2--0-------2------2--2----2----2--|
E|------------------3--3-------------------3----3-------------------------3--|
   You hear me when I call you are my morning song though darkness fills the 
e|---------------------------------------------------------------------------|
B|---------------------------------------------------------------------------|
G|---------------------------------------0-----------------------------------|
D|-------0---0--0---2----0---------0-----2---4-2-2---0----0----0--0----------|
A|---2---2---2--2---3----2--2-0----2---------5-3-2---2----2----2--2-2-2------|
E|---3----------------------3---3-----------------------------------3-3------|
   night it cannot hide the light whom shall i fear You crush the enemy 
e|---------------------------------------------------------------------------|
B|---------------------------------------------------------------------------|
G|---------------------------------------------------------------------------|
D|--0-0--0-------------0---0--0----0----------------0------0---0---2--0------|
A|--2-2--2----2--2-0---2---2--2----2----2-----2-----2------2---2---3--2----2-|
E|------------3--3---3------------------3-----3----------------------------3-|
   underneath my feet You are my sword and shield though troubles linger still
e|---------------------------------------------------------------------------|
B|---------------------------------------------------------------------------|
G|--------0------------------------------------------------------------------|
D|---0--------4--2-2---------------------------------------------------------|
A|0--2----2---5--3-3---------------------------------------------------------|
E|-3-------------------------------------------------------------------------|
   whom shall I fear
e|--------------------------------------------------------------------------------|
B|----------------------------------------------------0-0---0---0-----1-0---------|
G|-----------------------0--0-----0---0---2----2--------------------0--------2-0--|
D|------2--2----4---4----2--2--0--2---2---0----0------0-0---0---0-----0-0----0-0--|
A|------2--3----5---5----------2------------------------------------2-------------|
E|--------------------------------------------------------------------------------|
chorus: I know who goes before me I know who stands behind the God of angel armies
e|---------------------------------------------------------------------------|
B|-------0-------------------------------------------------------0---0----0--|
G|-------0---2--0---0---------------------0--0----0--0--2--2-----------------|
D|-2--2------0--0---0----2---2---4----4---2--2-0--2--2--0--0-----0---0----0--|
A|-3--3------------------3---3---5----5--------2-----------------------------|
E|---------------------------------------------------------------------------|
   is always by my side the one who reins forever He is a friend of mine the 
e|---------------------------------------------------------------------------|
B|--0------1-0----------------0----------------------------------------------|
G|-----0---------2--0---------0--2--0----0-----------------------------------|
D|--0------0-0---0--0--2---2-----0--0----0-----------------------------------|
A|-----2---------------3---3-------------------------------------------------|
E|---------------------------------------------------------------------------|
   God of angel armies is always by my side
e|---------------------------------------------------------------------------|
B|------1---1-----1----1---1---0---------------0---0--------1------0---------|
G|---------------------------------2------2------------0---------------2-----|
D|------0---0-----0----0---0---0---0------0----0---0---0----0------0---0-----|
A|---------------------------------------------------------------------------|
E|---------------------------------------------------------------------------|
bridge: nothing formed against me shall stand you hold the whole world in 
e|---------------------------------------------------------------------------|
B|------------1----1-----1------0---0----------------------------------------|
G|--0-----0------------------0---------2--2-----------0--2-------------------|
D|--0-----0---0----0-----0---0--0---0--0--0---2---4---0--0-----2--4----------|
A|--------------------------------------------0---0------------0--0----------|
E|---------------------------------------------------------------------------|
   Your hand i'm holding on to your promises you are faithful You are 
e|---------------------------------------------------------------------------|
B|-----0---------------------------------------------------------------------|
G|-0-2---2------------0--2---------------------------------------------------|
D|-0-0-0-0---2---4----0--0---------------------------------------------------|
A|-----------0---0-----------------------------------------------------------|
E|---------------------------------------------------------------------------|
   faithful You are faithful 
e|---------------------------------------------------------------------------|
B|--------0---0------------0--0-----0--0--------------0---0---0---0-------1-0|
G|----------------2----2--------2-0---------2----2-------------------0-------|
D|--------0---0---0----0---0--0-0-0-0--0----0----0----0---0---0---0--0----0-0|
A|---------------------------------------------------------------------------|
E|---------------------------------------------------------------------------|
chorus 2: i know who goes before me I know who stands behind the God of angel 
e|---------------------------------------------------------------------------|
B|---------------0--------------0---0-------------0-0-----0--0-----------0---|
G|--2--0------------2--0---0------------2----2--------2-0-------2---2--------|
D|--0--0--2----2-0--0--0---0----0---0---0----0----0-0-0-0-0--0--0---0----0---|
A|--------3----3-------------------------------------------------------------|
E|---------------------------------------------------------------------------|
   armies is always by my side the one who reigns forever He is a friend of 
e|---------------------------------------------------------------------------|
B|-0-----0---0------1-0---------------0---------------0---1--3---1-0---------|
G|--------------0---------2--0------------0---0--0---------------------2-0---|
D|-0-----0---0--0---0-0---0--0--2---2-0---0---0--0----0---0--0---0-0---0-0---|
A|------------------------------3---3----------------------------------------|
E|---------------------------------------------------------------------------|
  mine  the God of angel armies is always by my side The God of angel armies 
e|------------------1--------------------------------------------------------|
B|------0-----------0--------------------------------------------------------|
G|-----------2--0---0--------------------------------------------------------|
D|-2--2-0----0--0---0--------------------------------------------------------|
A|-3--3-------------2--------------------------------------------------------|
E|------------------3--------------------------------------------------------|
   is always by my side

| /   slide up
| \   slide down
| h   hammer-on
| p   pull-off
| ~   vibrato
| +   harmonic
| x   Mute note
| b   Bend
| pb  Pre-bend
| br  Bend release
| pbr Pre-bend release
| brb Bend release bend

************************************
Suggest correction
Creating personal tab
Creating personal tab
You can edit any tab online and save it as your Personal.

You can edit, replace or remove any tab part or add personal notes – all changes will be seen only by you.

Personal tabs can be accessed anytime from any device, even offline.
Learn more »
Give kudos to tab author, rate the tab!
1 2 3 4 5
comments
print report bad tab
guest
You may want to rate the tab now too:
select rating
Wanna post a correction for this tab? Suggest correction