Oops, an error
Loading. Please wait.

You Lifted Me Out Bass Tab

457 views 1 this week
no commentswrite comment
1 2 3 4 5
please rate
add to favorites
launch autoscroll
font size
0
reset
guitar tuner
Tab Pro tools
  • play this tab
  • loop segment
  • change instrument
  • show fretboard
  • metronome
×
Best way to learn
"You Lifted Me Out"
Autoscroll
slow
fast
+/-
esc
set tempo
stop
Contributor
Artist: Chris Tomlin
Song: You Lifted Me Out
Album: Hello Love
Tabbed By: King Of Suede


Intro:
1|-------------------------------------|
2|-------------------------------------|
3|-44444444-33333333-11111111----------|
4|----------------------------4444444~-|

1|-------------------------------------|
2|-------------------------------------|
3|-------------------------------------|
4|-22222222-11111111-22222222-4444444~-|

Verse:
1|----------------|----------------|
2|----------------|----------------|
3|----------------|----------------| (x3)
4|-6-6-4-6~-4-6-4-|-6-6-4-6~-4-6-4-|

1|---------------------------------|
2|---------------------------------|
3|--------------------------4-3-3~-|
4|-4-4-2-4~-2-4-2-|-4-2-4-2--------|

1|----------------|----------------|
2|----------------|----------------|
3|----------------|----------------| (x2)
4|-6-6-4-6~-4-6-4-|-6-6-4-6~-4-6-4-|

1|-------------------|-------------------|
2|-------------------|-------------------|
3|-------------------|-------------------|
4|-22222222-22222222-|-44444444-44444444-|

Chorus:
1|-------------------|-------------------|
2|-------------------|-------------------|
3|-44444444-44444444-|-------------------|
4|-------------------|-44444444-44444444-|

1|-------------------|-------------------|
2|-------------------|-------------------|
3|-------------------|-------------------|
4|-66666666-66666666-|-22222222-22222222-|

(Intro)
(Verse)
(Chorus)

Bridge:
  (piano 6 bars)
1|----|--------|----------|----------|----------|
2|----|--------|----------|----------|----------|
3|----|--------|----------|----------|----------|
4|-4\-|--------|-4-4-2-4\-|-6-6-4-6\-|-2-2-1-2\-|

  "Lost his way..."
1|-------------------|-------------------|-------------------|
2|-------------------|-------------------|-------------------|
3|-------------6-6---|-------------8-8---|-------------------|
4|-4-4-2-4\--4-----4-|-6-6-4-6\--6-----6-|-2-2-1-2\--2-6-6-6-|

                                          "But you never will"
1|-------------------|-------------------|-------------------|
2|-------------------|-------------------|-------------------|
3|-------------6-6---|-------------8-8---|-----------66666666|
4|-4-4-2-4\--4-----4-|-6-6-4-6\--6-----6-|-2-2-1-2\----------|

(Chorus)
(Intro)
comments
We did not receive enough feedback on this tab! Please rate:
print report bad tab
1 2 3 4 5
I want to post or [tab]
guest
You may want to rate the tab now too:
select rating
Please do not post tabs as comments. Select "correction" instead!