Oops, an error
Loading. Please wait.

Wild Country Tab

1,083 views 9 this week
no commentswrite comment
1 2 3 4 5
please rate
add to favorites
launch autoscroll
font size
0
reset
how to read this tab
guitar tuner
Autoscroll
slow
fast
+/-
esc
set tempo
stop
Help us to improve Ultimate-Guitar.com Take our survey!
×
Author
Tuning
D G C F A D
WILD COUNTRY

Tuning: DADGAD (6-1)

Intro

1D------------0--------------------------------------|
2A---0-----0--------0--------------------------------|
3G---2-----2--------2-----2-----0--------------------|
4D---2-----2--------2-----2-----0------x/5--5--5--4--|
5A---0-----0--------0-----0-----0------x/5-----------|
6D-------------------------------------x/5-----------|

1D---------------------------------------------------|
2A---------------------------------------------------|
3G------------------0--------0--0--0--0--0--0--------|
4D------------4-----------4h/5--5--5--5--5--4--------|
5A---5-----5-----------------5--5--5--5--5--5--------|
6D---0-----0-----------------0--0--0--0--0--0--------|


1D------------0--------------------------------------|
2A---0-----0--------0--------------------------------|
3G---2-----2--------2-----2-----0--------------------|
4D---2-----2--------2-----2-----0------x/5--5--5--4--|
5A---0-----0--------0-----0-----0------x/5-----------|
6D-------------------------------------x/5-----------|

1D---------------------------------------------------|
2A---------------------------------------------------|
3G------------------0--------0--0--0--0--0--0--------|
4D------------4-----------4h/5--5--5--5--5--4--------|
5A---5-----5-----------------5--5--5--5--5--5--------|
6D---0-----0-----------------0--0--0--0--0--0--------|


1D------------0-----------2--------------------------|
2A---4-----4--------4-----------4--------------------|
3G---2-----2--------------------------2-----2-----2--|
4D---4-----4--------------------------4-----4-----4--|
5A---2-----2-----------------------2-----2-----2-----|
6D---------------------------------------------------|

1D---------------------------------------------------|
2A---------------------------------------------------|
3G------------7-----------7----------7---------------|
4D---5--5--5-----5--5--5-----5--5--5-----5--5--5-----|
5A---5--5--5-----5--5--5-----5--5--5-----5--5--5-----|
6D---5--5--5-----5--5--5-----5--5--5-----5--5--5-----|

1D------------0--------------------------------------|
2A---0-----0--------0--------------------------------|
3G---2-----2--------2-----2-----0--------------------|
4D---2-----2--------2-----2-----0------x/5--5--5--4--|
5A---0-----0--------0-----0-----0------x/5-----------|
6D-------------------------------------x/5-----------|

1D---------------------------------------------------|
2A---------------------------------------------------|
3G---------------------------------------------------|
4D------------------4-----4-----------------4-----4--|
5A---5--------5-----------------------5--------------|
6D---0-----0-----0-----0-----0-----0-----0-----0-----|

1D---------------------------------------------------|
2A---------------------------------------------------|
3G---------------------------0--0--0--0--0--0--------|
4D------------------4-----4h/5--5--5--5--5--4--------|
5A---5--------5--------------5--5--5--5--5--5--------|
6D---0-----0-----0-----0-----0--0--0--0--0--0--------|

     Breakin  rocks all  day  o-n the a  ve nu e
1D------------0--------------------------------------|
2A---0-----0--------0--------------------------------|
3G---2-----2--------2--------------------------------|
4D---2-----2--------2----/5--5--5--5--5--5--5--4-----|
5A---0-----0--------0----/5--5--5--5--5--5--5--5-----|
6D-----------------------/5--5--5--5--5--5--5--------|

                                                get
1D---------------------------------------------------|
2A---------------------------------------------------|
3G------------------0--------0--0--0--0--0--0--------|
4D------------4-----------4h/5--5--5--5--5--4--------|
5A---5-----5-----------------5--5--5--5--5--5--------|
6D---0-----0-----------------0--0--0--0--0--0--------|


     hard  to un--earth   a-ny-thing  that's  true
1D------------0--------------------------------------|
2A---0-----0--------0--------------------------------|
3G---2-----2--------2--------------------------------|
4D---2-----2--------2----/5--5--5--5--5--5--5--4-----|
5A---0-----0--------0----/5--5--5--5--5--5--5--5-----|
6D-----------------------/5--5--5--5--5--5--5--------|


1D---------------------------------------------------|
2A---------------------------------------------------|
3G------------------0--------0--0--0--0--0--0--------|
4D------------4-----------4h/5--5--5--5--5--4--------|
5A---5-----5-----------------5--5--5--5--5--5--------|
6D---0-----0-----------------0--0--0--0--0--0--------|

     soon  I'm  gonna    drop this   jack an-d   ru-
1D------------0-----------2--------------------------|
2A---4-----4--------4-----------4--------------------|
3G---2-----2--------------------------2-----2-----2--|
4D---4-----4--------------------------4-----4-----4--|
5A---2-----2-----------------------------------2-----|
6D---------------------------------------------------|
     -n          	    	 		re-
1D---------------------------------------------------|
2A---------------------------------------------------|
3G------------7-----------7----------7---------------|
4D---5--5--5-----5--5--5-----5--5--5-----5--5--5-----|
5A---5--5--5-----5--5--5-----5--5--5-----5--5--5-----|
6D---5--5--5-----5--5--5-----5--5--5-----5--5--5-----|

    turn   in-to  the    wi-ld  whe-re   I'm  from
1D------------0--------------------------------------|
2A---0-----0--------0--------------------------------|
3G---2-----2--------2--------------------------------|
4D---2-----2--------2----/5--5--5--5--5--5--5--4-----|
5A---0-----0--------0----/5--5--5--5--5--5--5--5-----|
6D-----------------------/5--5--5--5--5--5--5--------|

1D---------------------------------------------------|
2A---------------------------------------------------|
3G---------------------------------------------------|
4D------------------4-----4-----------------4-----4--|
5A---5--------5-----------------------5--------------|
6D---0-----0-----0-----0-----0-----0-----0-----0-----|

                                                There's ...
1D---------------------------------------------------|
2A------------------------------------------0--0-----|
3G------------------------5-----5-----4-------(0)----|
4D------------------4-----------4-----4--------4-----|
5A---5--------5-----------------5-----5--------5-----|
6D---0-----0-----0-----0-----0-----0-----0-----------|
Suggest correction
Give kudos to tab author, rate the tab!
1 2 3 4 5
comments
print report bad tab
guest
You may want to rate the tab now too:
select rating
Please do not post tabs as comments. Select "correction" instead!