Oops, an error
Loading. Please wait.

Aw Naw bass

1,855 views 1 this week
1 commentread comment
1 2 3 4 5
1 last vote to show rating
add to favorites
×
Save as Personal and add changes to this tab that will be seen only by you. Learn more ›
×
You can save this tab as Personal to edit and correct it or add notes. All changes will be seen only by you. Learn more »
launch autoscroll
font size
0
reset
guitar tuner
edit
Autoscroll
slow
fast
+/-
esc
set tempo
stop
-----------------------------------------------------------------------------
                             Aw Naw - Chris Young
-----------------------------------------------------------------------------

Tabbed by: Country Bass
E-mail: aaron.white8@education.nsw.gov.au


Chris Young rocking it out with the first single for his upcoming album, hope you like it

Tuning: Standard

Verse

G|--------------------------------------------------|
D|--------------------------------------------------|
A|--7--7--7--7--7--7--7--7--7--7--7--7--------0--0--| x3
E|--------------------------------------3--3--------|

Pre-Chorus

G|--------------------------|
D|--------------------------|
A|--3-------5--3----2-2-2-2-|
E|-------3------------------|

Chorus 

G|--------------------------------------------------|
D|--------------------------------------------------|
A|--7--7--7--7--7--7--7--7--7--7--7--7--------0--0--| x2
E|--------------------------------------3--3--------|

Bridge

I'm not sure about this riff right here but it sounds pretty close to the recording

G|-----------------------------------|
D|-----------------------------------|
A|--7-7-7-----------0-0-0-3-3-3-3-3--| x5
E|--------3-3-3-3-3------------------|

G|-----------------------|
D|-----------------------|
A|--7-7-7-------0--------|
E|--------3-3-3----------|

G|--------------------------------------------------|
D|--------------------------------------------------|
A|--7--7--7--7--7--7--7--7--7--7--7--7--------0--0--|
E|--------------------------------------3--3--------|

Chorus 3

no bass until Chris sings "Aw Naw" for the second time after the guitar solo

G|--------------------------------------------------|
D|--------------------------------------------------|
A|--7--7--7--7--7--7--7--7--7--7--7--7--------0--0--| x3
E|--------------------------------------3--3--------|

Verse
Pre-Chorus
Chorus
Verse
Pre-Chorus
Chorus
Bridge
Chorus 3


Have Fun


| /  slide up
| \  slide down
| h  hammer-on
| p  pull-off
| ~  vibrato
| +  harmonic
| x  Mute note
=============================================================================

            
            
Suggest correction
Creating personal tab
Creating personal tab
You can edit any tab online and save it as your Personal.

You can edit, replace or remove any tab part or add personal notes – all changes will be seen only by you.

Personal tabs can be accessed anytime from any device, even offline.
Learn more »
Give kudos to tab author, rate the tab!
1 2 3 4 5
comments
print report bad tab
1 comment total.
0 reply
von_lidl 100 Oct 02, 2013 06:51 AM

this is wrong. He does not play 6, he plays in a E

guest
You may want to rate the tab now too:
select rating
Wanna post a correction for this tab? Suggest correction