Oops, an error
Loading. Please wait.

Gettin You Home intro tab

version 1
version 1
28,283 views 9 this week
4 commentsread comments
1 2 3 4 5
x 13
add to favorites
×
Save as Personal and add changes to this tab that will be seen only by you. Learn more ›
×
You can save this tab as Personal to edit and correct it or add notes. All changes will be seen only by you. Learn more »
launch autoscroll
font size
0
reset
how to read this tab
guitar tuner
edit
Autoscroll
slow
fast
+/-
esc
set tempo
stop
Author
Difficulty
This is the intro and is also used after the end of the first chorus and at the end of 
chorus. And this is my first posting of a tab.  Is there a more convenient way?


E||------------------------------------------3--------------|
B||----------------------------------------- 0--------------|
G||-----0-2-2/4-2-0-2-2------0-2-4/2-0-------0--------------|
D||-0-2------------------0-2-----------2-----0--------------|
A||--------------------------------------0-2-2--------------|
E||------------------------------------------3--------------|
Suggest correction
Creating personal tab
Creating personal tab
You can edit any tab online and save it as your Personal.

You can edit, replace or remove any tab part or add personal notes – all changes will be seen only by you.

Personal tabs can be accessed anytime from any device, even offline.
Learn more »
comments
print report bad tab
4 comments total. Showing first comments.
0 reply
Rob Ross 334 Jul 09, 2013 11:52 AM

E||-----------------------------------------------3-3-3-3-3-3---------|
B||-----------0------------------0----------------0-0-0-0-0-0---------|
G||-----0-2-2---2-0-2-2------0-2---2-0------------0-0-0-0-0-0---------|
D||-0h2------------------0h2-----------2-0-2-0-2--0-0-0-0---0---------|
A||-----------------------------------------------3-3-3-3---3---------|
E||-----------------------------------------------3-3-3-3---3---------|

4th chord is strum up

5th is partial strum down

6th is quickly strummed down after 5th

0 reply
Poi316 10 Feb 01, 2015 06:14 PM

Guys.. Listen closer. It's more like this

E||-------------------------------------------|
B||------1/3-1-0-1-0h1~------1/3-0------------|
G||----0-2/4-2-0-2-0h2~----0-2/4-0-0----------|
D||-0h2-2---------------0h2-2------0h3p0------|
A||--------------------------------------2p0--|
E||------------------------------------------3|

0 reply
Poi316 10 Feb 01, 2015 06:14 PM

Guys.. Listen closer. It's more like this

E||-------------------------------------------|
B||------1/3-1-0-1-0h1~------1/3-0------------|
G||----0-2/4-2-0-2-0h2~----0-2/4-0-0----------|
D||-0h2-2---------------0h2-2------0h3p0------|
A||--------------------------------------2p0--|
E||------------------------------------------3|

guest
You may want to rate the tab now too:
select rating
Wanna post a correction for this tab? Suggest correction