Oops, an error
Loading. Please wait.

Blame It On Me bass

100 views 1 this week
no commentswrite comment
1 2 3 4 5
3 more votes to show rating
add to favorites
×
Save as Personal and add changes to this tab that will be seen only by you. Learn more ›
×
You can save this tab as Personal to edit and correct it or add notes. All changes will be seen only by you. Learn more »
launch autoscroll
font size
0
reset
guitar tuner
edit
Autoscroll
slow
fast
+/-
esc
set tempo
stop
BLAME IT ON ME -- CHRISETTE MICHELE, "Epiphany"(2009)
Chords and tabs written out by ClassicalfreaK, 2015
====================================================
    <--BASS TAB-->
VERSE I:
G||  --------|3-------|----0---|1-------  ||
D||o 1-------|--------|3-------|-------- o||
A||o --------|--------|--------|-------- o||
E||  --------|--------|--------|--------  ||

BRIDGE
G||---------|1---1---|----0----|1--1-1--||
D||1---1-3--|--------|1----3---|--------||
A||---3-----|--------|---------|--------||
E||---------|--------|---------|--------||

CHORUS
G||  ---------------|---------------|---------------|---------------  ||
D||o 1-1-1-1-1-1-1-1|---------------|---------------|--------------- o||
A||o ---------------|3-3-3-3-3-3-1-1|---------------|--------------- o||
E||  ---------------|---------------|4-4-4-4-4-4-4-4|4-4-4-4-4-4-4-4  ||

VERSE II:
G||--------|--------|----0---|1-------|
D||1-------|--------|3-------|--------|
A||--------|1-------|--------|--------|
E||--------|--------|--------|--------|

G||--------|---------|--------|--------||
D||1-------|--------1|3-------|--------||
A||--------|1------3-|--------|--------||
E||--------|---------|----3---|4-------||

BRIDGE
G||---------|1---1---|----0----|1--1-1--||
D||1---1-3--|--------|1----3---|--------||
A||---3-----|--------|---------|--------||
E||---------|--------|---------|--------||

CHORUS
G||  ---------------|---------------|---------------|---------------  ||
D||o 1-1-1-1-1-1-1-1|---------------|---------------|--------------- o||
A||o ---------------|3-3-3-3-3-3-1-1|---------------|--------------- o||
E||  ---------------|---------------|4-4-4-4-4-4-4-4|4-4-4-4-4-4-4-4  ||

INTERLUDE
G||---------------|---------------|---------------|---------------||
D||---------------|---------------|--------6------|---------------||
A||------------1-1|2-2-2-2-4-4-4-4|-----4-6----1-1|2-2-2-2-4-4-4-4||
E||2-2-2-2-4-4----|---------------|2-2-2-----4----|---------------||

CHORUS
G||  ---------------|---------------|---------------|---------------  ||
D||o 1-1-1-1-1-1-1-1|---------------|---------------|6-------6------ o||
A||o ---------------|3-3-3-3-3-3-1-1|---------------|--------------- o||
E||  ---------------|---------------|4-4-4-4-4-4-4-4|--4-4-4---4-4-4  ||

G||---------------|---------------|----------------|--------------------------|
D||1-1-1-1-1-1-1--|---------------|----------------|9-8-6-------------4-------|
A||--------------1|3-3-3-3-3-3-1-1|-------------6-8|-----6-------1-2-4--------|
E||-------------3-|---------------|4-4-4-4-4-4-4---|------7-6-4--------4-4-4-4|

CHORUS
G||---------------|---------------|----------------|-----------------------|----||
D||1-1-1-1-1-1-1-1|---------------|----------------|-----------------------|1---||
A||---------------|3-3-3-3-3-3-1-1|----------------|11-11-11-11-11-11-11-11|----||
E||---------------|---------------|4-4-4-4-4-4-4-4/|-----------------------|----||

INTRO
(drums)

VERSE
                      Eb
Sometimes you can work it out
                 Bb
Sometimes you can't
                   Fm7                       Eb/G                    Abm6
Sometimes you're forced to watch everything fall apart, it's out of your hands
                      Eb
Sometimes leaving is easy
               Bb
Sometimes it ain't
                Fm7                        Eb/G                 Abm6
Sometimes it hurts to know the loving you had is slowly fading away

BRIDGE
Eb              F        AbM7
You can say whatever you like
   Eb              F       Abm6
As long as we just say goodbye

CHORUS
            Eb
Blame it on me (Blame it on me)
            Csus               Cm
Say it's my fault (Say it's my fault)
Cm/Bb       Ab                                         Abm6
Say that I left you outside in the cold with a broken heart
               Eb
I really don't care (I really don't care)
               Csus   Cm
I ain't crying no more
Cm/Bb     Ab                                   Abm6
Say I'm a liar a cheater say anything that you want
                Eb
As long as it's over

VERSE
          Eb
I ain't a quitter
                  Bb
I just ain't that type
          Fm7
I tried to see it through
             Eb/G                   Abm6
I tried to make it to the finishing line
                      Eb
Oh you thought it was meant to be, yeah
               Bb
I admit so did I
       Fm7                           Eb/G
Every once in awhile you think you figured it out
                 Abm6
Sometimes you're not right

BRIDGE
Eb              F        AbM7  
You can say whatever you like
   Eb              F        Abm6 
As long as we just say goodbye

CHORUS
            Eb
Blame it on me (Blame it on me)
            Csus               Cm
Say it's my fault (Say it's my fault)
Cm/Bb       Ab                                         Abm6
Say that I left you outside in the cold with a broken heart
               Eb
I really don't care (I really don't care)
               Csus
I ain't crying no more
Cm/Bb      Ab                                  Abm6
Say I'm a liar a cheater say anything that you want
As long as it's over

INTERLUDE
Gb     Abm            Gb/Bb               B6 
 Yes I love you but I really got to loose you
Db
Freedom is where I wanna be
Gb        Abm             Gb/Bb
 Yes I'll probably always love you
        B6
But I'm moving
  Db                 Eb
I got to do this for me

CHORUS
            Eb
Blame it on me (Blame it on me)
            Csus               Cm
Say it's my fault (Say it's my fault)
Cm/Bb       Ab                                         Abm6
Say that I left you outside in the cold with a broken heart
               Eb
I really don't care (I really don't care)
               Csus  Cm
I ain't crying no more
          Ab                                   Abm6
Say I'm a liar a cheater say anything that you want
            Eb
Blame it on me (Blame it on me)
            Csus               Cm
Say it's my fault (Say it's my fault)
Cm/Bb       Ab                                         Abm6
Say that I left you outside in the cold with a broken heart
               Eb
I really don't care (I really don't care)
               Csus  Cm
I ain't crying no more
Cm/Bb     Ab                                   Abm6
Say I'm a liar a cheater say anything that you want
       Eb
As long as it's over
================================================
Enjoy! Please tell me what you think in the comments.
-ClassicalfreaK
Suggest correction
Creating personal tab
Creating personal tab
You can edit any tab online and save it as your Personal.

You can edit, replace or remove any tab part or add personal notes – all changes will be seen only by you.

Personal tabs can be accessed anytime from any device, even offline.
Learn more »
Give kudos to tab author, rate the tab!
1 2 3 4 5
comments
print report bad tab
guest
You may want to rate the tab now too:
select rating
Wanna post a correction for this tab? Suggest correction