Oops, an error
Loading. Please wait.

Amazing Grace Bass Tab

7,078 views 60 this week
no commentswrite comment
1 2 3 4 5
x 12
add to favorites
launch autoscroll
font size
0
reset
guitar tuner
Autoscroll
slow
fast
+/-
esc
set tempo
stop
Help us to improve Ultimate-Guitar.com Take our survey!
×
Author
Difficulty
novice
There are no bass tabs for amazing grace on here so i thought id post if for fun here we go.

Tabbed by Brandon Bushnell

Tuning (EADG)

    D  G  B  G  B  A  G  A  G   D  G  B  G  B  A  D   B  D   B  D  B  G 
G|--------4-----4------------|--------4-----4-----7~--4--7---4--7--4-----|
D|-----5-----5-----7--5------|-----5-----5-----7----------------------5--|
A|--5--------------------7--5|--5----------------------------------------|
E|---------------------------|-------------------------------------------|

    D  E  G  E  D    D  G  B  G  B  A  G   
G|-----------------|-------4-----4--------|
D|--------5--------|----5-----5-----7--5--|
A|--5--7-----7--5--|-5--------------------|
E|-----------------|----------------------|

Thats it have fun.
Suggest correction
comments
print report bad tab
guest
You may want to rate the tab now too:
select rating
Wanna post a correction for this tab? Suggest correction