Oops, an error
Loading. Please wait.

Amazing Grace Tab

version 1
version 1
48,070 views 9 this week
8 commentsread comments
1 2 3 4 5
x 15
add to favorites
launch autoscroll
font size
0
reset
how to read this tab
guitar tuner
Autoscroll
slow
fast
+/-
esc
set tempo
stop
Help us to improve Ultimate-Guitar.com Take our survey!
×
Author
Difficulty
novice
Amazing Grace
Tunning: Standard

I didn't see any good tabs for this song and I'm preety sure this is right.

e-----------0-----0-----------------------------0----0---0---3-0---3-0---|
B------------3--------3--------------------------3------3-------------3--|
G-0-----5-----5----------5----2---0----0---5------5--------------------5-|
D------------------------------------------------------------------------|
A------------------------------------------------------------------------|
E------------------------------------------------------------------------|


e-0----------------------------0---0-----------|
B----3--------------------------3-----3--------|
G--------5----2-0---0-----5------5-------5-----|
D----------------------------------------------|
A----------------------------------------------|
E----------------------------------------------|

play this over and over for all of the verses.

JESUS LOVES YOU!!!!!
Suggest correction
comments
print report bad tab
8 comments total. Showing first comments.
+4 reply
srkstl 10 Sep 28, 2008 11:48 AM

What song is this?

+3 reply
Trey3 93 Oct 16, 2008 05:20 PM

how did you get amazing grace out of that? you should check out my tab

+3 reply
silverswan 10 Dec 30, 2008 03:09 AM

Not very accurate...

guest
You may want to rate the tab now too:
select rating
Wanna post a correction for this tab? Suggest correction