Oops, an error
Loading. Please wait.

Away In A Manger Tab

6,837 views 21 this week
no commentswrite comment
1 2 3 4 5
x 7
add to favorites
launch autoscroll
font size
0
reset
how to read this tab
guitar tuner
Autoscroll
slow
fast
+/-
esc
set tempo
stop
Help us to improve Ultimate-Guitar.com Take our survey!
×
E|--3---3---1---0---0---|
B|----------------------|
G|----------------------|
D|----------------------|
A|----------------------|
E|----------------------|

E|------------------|
B|--3---1---1---0---|
G|------------------|
D|------------------|
A|------------------|
E|------------------|

E|------------------------------|
B|------------------------------|
G|--2---0---0---0---2---0---0---|
D|------------------------------|
A|------------------------------|
E|------------------------------|

E|----------|
B|--3---0---|
G|----------|
D|----------|
A|----------|
E|----------|

E|----------|
B|----------|
G|--2---0---|
D|----------|
A|----------|
E|----------|

E|------|
B|--1---|
G|------|
D|------|
A|------|
E|------|

E|--0---3---3---1---0---0---|
B|--------------------------|
G|--------------------------|
D|--------------------------|
A|--------------------------|
E|--------------------------|

E|------------------|
B|--3---1---1---0---|
G|------------------|
D|------------------|
A|------------------|
E|------------------|

E|--------------|
B|--------------|
G|--2---0---0---|
D|--------------|
A|--------------|
E|--------------|

E|--1---0---|
B|----------|
G|----------|
D|----------|
A|----------|
E|----------|

E|------|
B|--3---|
G|------|
D|------|
A|------|
E|------|

E|--0---|
B|------|
G|------|
D|------|
A|------|
E|------|

E|--------------|
B|--3---1---3---|
G|--------------|
D|--------------|
A|--------------|
E|--------------|

E|------|
B|------|
G|--2---|
D|------|
A|------|
E|------|

E|----------|
B|--0---1---|
G|----------|
D|----------|
A|----------|
E|----------|







Suggest correction
comments
print report bad tab
guest
You may want to rate the tab now too:
select rating
Wanna post a correction for this tab? Suggest correction