Oops, an error
Loading. Please wait.

Fixing A Broken Heart Tab

15,014 views 3 this week
1 commentread comment
1 2 3 4 5
please rate
add to favorites
launch autoscroll
font size
0
reset
how to read this tab
guitar tuner
Tab Pro tools
  • play this tab
  • loop segment
  • change instrument
  • show fretboard
  • metronome
×
Best way to learn
"Fixing A Broken Heart"
Autoscroll
slow
fast
+/-
esc
set tempo
stop
Contributor
Difficulty
novice
Intro:
e|------------------------------|
b|--------2-----3-----------2---|
g|--------------------2---------|
d|-----2-----2-----2-----2------|
a|--0---------------------------|
E|------------------------------|

Verse 1
-------
                      (guitar 1 enters here...........)  
       There was nothing to say the day you left

                             A           E         F#m
e|---------------------------------------------------------------------|
b|---------------------------2-----------0-----------------------------|
g|------------------------------2-----------1--------2-----------------|
d|------------------------2-----------2-----------4-----4-----4--------|
a|---------------------0-----------2-----------0-----------0-----------|
E|---------------------------------------------------------------------|
              (guitar 2 plays this background right after the F#m riff)
                                        e|---------------------2~~-----|
                                        b|-----------------------------|
                                        g|-----------------------------|
                                        d|-----------------------------|
                                        a|-----------------------------|
                                        E|-----------------------------|

     I just filled the suitcase ...

                    Bm        A              E
e|---------------------------------------------------------------------|
b|---------------------3-----------2-----------------------------------|
g|------------------------4-----------2--------1h2--1~-----------------|
d|------------------4-----------2-----------2--------------------------|
a|---------------0-----------0-----------2-----------------------------|
E|---------------------------------------------------------------------|
        
          (guitar 2 plays this riff right after the g string vibrato)
                                         e|-----------0h2~~------------|
                                         b|--0--2--5-------------------|
                                         g|----------------------------|
                                         d|----------------------------|
                                         a|----------------------------|
                                         E|----------------------------| 

              I hailed a taxi ..


                             A           E         F#m
e|---------------------------------------------------------------------|
b|---------------------------2-----------0-----------------------------|
g|------------------------------2-----------1--------2-----------------|
d|------------------------2-----------2-----------4-----4-----4--------|
a|---------------------0-----------2-----------0-----------0-----------|
E|---------------------------------------------------------------------|
              (guitar 2 plays this background right after the F#m riff)
                                        e|---------------------2~~-----|
                                        b|-----------------------------|
                                        g|-----------------------------|
                                        d|-----------------------------|
                                        a|-----------------------------|
                                        E|-----------------------------|
    Looking for some place to ...

                    Bm        A              E
e|---------------------------------------------------------------------|
b|---------------------3-----------2-----------------------------------|
g|------------------------4-----------2--------1h2--1~-----------------|
d|------------------4-----------2-----------2--------------------------|
a|---------------0-----------0-----------2-----------------------------|
E|---------------------------------------------------------------------|
        
          

Pre Chorus
----------

       Then like an ...
          F#m          E           A
e|---------------------------------------------------------|
b|---------2-----------0-----------2h3--2------------------|
g|------------2-----------1--------2----2------------------|
d|------2-----------2-----------2--------------------------|
a|---4-----------2-----------0-----------------------------|
E|---------------------------------------------------------|           
          

       I turned around and ...
          Bm               A
e|---------------------------------------------------------|
b|---------3------------------2----------------------------|
g|------------4------------------2~~-----------------------|
d|------4------------------2-------------------------------|
a|---0------------------0----------------------------------|
E|---------------------------------------------------------|


Chorus
------

You really know where to start............
                            A                 E                      
e|---------------------------------------------------|
b|----------------------------2--------------0-------|
g|-------------------------------2--------------1----|
d|-------------------------2--------------2----------|
a|----------------------0--------------2-------------|
E|---------------------------------------------------|

       Fixing    a      ..
        F#m               A                 Bm               A
e|------------------------------------------------------------------------|
b|-----------2---------------2-----------------3----------------2---------|
g|--------------4---------------2-----------------4----------------2------|
d|--------4---------------2-----------------4----------------2------------|
a|-----0---------------0-----------------0----------------0---------------|
E|------------------------------------------------------------------------|

       You really ...
                      E
        e|-----------0-------------------------------|
        b|-----0--0--0--0----------------------------|
        g|-----1--1--1--1----------------------------|
        d|-----2--2--2--2----------------------------|     
        a|-----2--2-----2----------------------------|
        E|-----x--x-----x----------------------------|


     Your emotional tools can ...
                             A           E         F#m
e|---------------------------------------------------------------------|
b|---------------------------2-----------0-----------------------------|
g|------------------------------2-----------1--------2-----------------|
d|------------------------2-----------2-----------4-----4-----4--------|
a|---------------------0-----------2-----------0-----------0-----------|
E|---------------------------------------------------------------------|
              (guitar 2 plays this background right after the F#m riff)
                                        e|---------------------2~~-----|
                                        b|-----------------------------|
                                        g|-----------------------------|
                                        d|-----------------------------|
                                        a|-----------------------------|
                                        E|-----------------------------|


       Whose dreams have ...
                    Bm        A              E
e|---------------------------------------------------------------------|
b|---------------------3-----------2-----------------------------------|
g|------------------------4-----------2--------1h2--1~-----------------|
d|------------------4-----------2-----------2--------------------------|
a|---------------0-----------0-----------2-----------------------------|
E|---------------------------------------------------------------------|
        
          (guitar 2 plays this riff right after the g string vibrato)
                                         e|-----------0h2~~------------|
                                         b|--0--2--5-------------------|
                                         g|----------------------------|
                                         d|----------------------------|
                                         a|----------------------------|
                                         E|----------------------------| 

                 Fixing a ...
                 A                    F#m
e|-------------------------------------------------------------|
b|-----------2-------------------------------------------------|
g|--------------2---------2---------------2--------------------|
d|---------2-----------2-----2---------4-----4-----------------|
a|-----0------------0---------------0--------------------------|
E|-------------------------------------------------------------|

*then,play the intro riff.


Verse 2
-------     
And I don't understand...

Pre chorus
----------
Yeahhh just like an answered ...

repeat chorus

* this riff is played in the end of the 2nd chorus,then play the bridge
  
  e|-----------------------0--0--0-----------|
  b|-----------------------0--0--0-----------|
  g|--------1--------------1--1--1-----------|
  d|-----2-----2--2-----2--2--2--------------|
  a|--2-----------0--2-----2--2--------------|
  E|--------------0--------x--x--------------|

Bridge
------
Em                                  F#
Soon the rain will stop ...
    Bm              A
So lets forget the ...
    D                 E
Cause here we are at ...

[Basicly,the chords shown in the tab are played in a plucking pattern.But,
 the chords are strummed throughly here]

repeat chorus
[this time the third guitar(a slightly distorted electric guitar)joins 
 the chorus]

Guitar 3 plays something like this(riff v)
e|--------------------------------------|
b|--------------------------------------|This riff is played repeatly
g|------0h9--7--9--7-----0h9--7--9------|then,
d|---7----------------7-----------------|
a|--------------------------------------|
E|--------------------------------------|

  (riff w)
e|--------------------------------------|
b|-----7--6--2--2-----------------------|After this,riff v is again
g|--7-----------0-----------------------|repeated then outro
d|--------------------------------------|
a|--------------------------------------|
E|--------------------------------------|

Outro(played by guitar 3)
-----
e|--------------------------------------|
b|--------10~~~-------------------------|
g|-----7--------------------------------|
d|--7-----------------------------------|
a|--------------------------------------|
E|--------------------------------------|

comments
We did not receive enough feedback on this tab! Please rate:
print report bad tab
1 2 3 4 5
1 comment total.
0 reply
markthedragonsl wrote on April 27 2013, 12:31 am

Nice tab i like it

I want to post or [tab]
guest
You may want to rate the tab now too:
select rating
Please do not post tabs as comments. Select "correction" instead!