Oops, an error
Loading. Please wait.

More Than Youll Ever Know tab

7,287 views 6 this week
no commentswrite comment
1 2 3 4 5
3 more votes to show rating
add to favorites
×
Save as Personal and add changes to this tab that will be seen only by you. Learn more ›
×
You can save this tab as Personal to edit and correct it or add notes. All changes will be seen only by you. Learn more »
launch autoscroll
font size
0
reset
how to read this tab
guitar tuner
edit
Autoscroll
slow
fast
+/-
esc
set tempo
stop
To Miss. Kristeen jean Babano ...


Tabbed by: Ric Tobias
Friendster: Clinshen.klay@yahoo.com


Intro:
    A
e|-----------------0----------------------0---|
B|--2-----0-------------0--2--3-----0---------|
G|-----2-----2-------------------2-----2------|
D|--------------2-----------------------------|
A|--0-------------------------0---------------|
E|--------------------------------------------|
   

    A
e|-----------------0----------------------0---|
B|--2-----0-------------0--2--3-----0---------|
G|-----2-----2-------------------2-----2------|
D|--------------2-----------------------------|
A|--0-------------------------0---------------|
E|--------------------------------------------| 


IST VERSE
   /A  /G  /F              C             Dm7             G
e|----------------1--------------0--------------1--------------------------|
B|--5---3---1--------1-----1--------1--------------1-----0-----------------|
G|-------------2--------------0--------------2-----------------------------|
D|----------------------------------------0--------------------------------|
A|-------------------------3-----------------------------------------------|
E|--5---3---1--------------------------------------------3-----------------|
   TAKE MY  HANDS      WE’LL WALK AWHILE   WE’LL TALK AWHILE


   /A  /G  /F              G      Am7  /G  C9
e|----------------1------------------------------0-------------------------|
B|--5---3---1--------1-----0------1-----3--3-------------------------------|
G|-------------2--------------0------0--------0----------------------------|
D|-------------------------------------------------------------------------|
A|--------------------------------0--------3-------------------------------|
E|--5---3---1--------------3------------3----------------------------------|
   FEEL MY LOVE          ALWAYS  THERE  BESIDE   YOU


   /A  /G  /F              C             Dm7             G
e|----------------1--------------0--------------1--------------------------|
B|--5---3---1--------1-----1--------1--------------1-----0-----------------|
G|-------------2--------------0--------------2-----------------------------|
D|----------------------------------------0--------------------------------|
A|-------------------------3-----------------------------------------------|
E|--5---3---1--------------------------------------------3-----------------|
    BE THE ONE        I KNOW YOU TELL ME  E______VERYTHING


                Em            E7    /F# /G#   A
e|-------------------------------------------------------------------------|
B|---------------0-----0----------------------0-----2----------------------|
G|------------------------0----1------2---4------2-------------------------|
D|------------------2-------------0----------------------------------------|
A|--------------------------------------------0----------------------------|
E|---------------0-------------0------2---4--------------------------------|
    YOU ARE THE ONE    I CHERISH    MORE THAN ANYTHING
   
                           
CHORUS

    A           Dm7             G               A
e|----------0---1-------1---------------3---------------0------------------|
B|--2---3-------------------1---0-----------0---2-----------2--------------|
G|------------------2---------------0---------------2-----------2----------|
D|--------------0----------------------------------------------------------|
A|--0-------------------------------------------0--------------------------|
E|------------------------------3------------------------------------------|
  I LOVE YOU   MORE THAN YOU’LL E____VER        KNOW

                                                        
    A           Dm7             G               A
e|----------0---1-------1---------------3---------------0------------------|
B|--2---3-------------------1---0-----------0---2-----------2--------------|
G|------------------2---------------0---------------2-----------2----------|
D|--------------0----------------------------------------------------------|
A|----------------------------------------------0--------------------------|
E|------------------------------3------------------------------------------|          
  I LOVE YOU   MORE THAN YOU’LL E____VER        SEE


    A           Dm7             G               A
e|----------0---1-------1---------------3---------------0------------------|
B|--2---3-------------------1---0-----------0---3-----------3---2----------|
G|------------------2---------------0---------------2----------------------|
D|--------------0----------------------------------------------------------|
A|----------------------------------------------0---------------0----------|
E|------------------------------3------------------------------------------|          
  MORE THAN MY  HEART COULD     E____VER        SHOW

    A           Dm7             G               A
e|----------0---1-------1---------------3----------------------------------|
B|--2---3-------------------1---0-----------0---2--------------------------|
G|------------------2---------------0-----------2--------------------------|
D|--------------0-------------------------------2--------------------------|
A|----------------------------------------------0--------------------------|
E|------------------------------3------------------------------------------|           
  I LOVE YOU  MORE THAN YOU’LL  E____VER        KNOW

    A
e|-----------------0----------------------0---|
B|--2-----0-------------0--2--3-----0---------|
G|-----2-----2-------------------2-----2------|
D|--------------2-----------------------------|
A|--0-------------------------0---------------|
E|--------------------------------------------|

2ND VERSE
   /A  /G  /F              C             Dm7             G
e|----------------1--------------0--------------1--------------------------|
B|--5---3---1--------1-----1--------1--------------1-----0-----------------|
G|-------------2--------------0--------------2-----------------------------|
D|----------------------------------------0--------------------------------|
A|-------------------------3-----------------------------------------------|
E|--5---3---1--------------------------------------------3-----------------|
  THINK OF ME      AND KNOW THAT I’LL     BELIEVED IN    YOU

   /A  /G  /F              G      Am7  /G  C9
e|----------------1------------------------------0-------------------------|
B|--5---3---1--------1-----0------1-----3--3-------------------------------|
G|-------------2--------------0------0--------0----------------------------|
D|-------------------------------------------------------------------------|
A|--------------------------------0--------3-------------------------------|
E|--5---3---1--------------3------------3----------------------------------|
   THERE ALWAYS BE THIS PRECIOUS TIME TOGETHER

   /A  /G  /F              C             Dm7             G
e|----------------1--------------0--------------1--------------------------|
B|--5---3---1--------1-----1--------1--------------1-----0-----------------|
G|-------------2--------------0--------------2-----------------------------|
D|----------------------------------------0--------------------------------|
A|-------------------------3-----------------------------------------------|
E|--5---3---1--------------------------------------------3-----------------|
 WITH EVERY TEARS     A LOVE      SO        STRONG         NO WORDS 


                Em            E7    /F# /G#   A
e|-------------------------------------------------------------------------|
B|---------------0-----0----------------------0-----2----------------------|
G|------------------------0----1------2---4------2-------------------------|
D|------------------2-------------0----------------------------------------|
A|--------------------------------------------0----------------------------|
E|---------------0-------------0------2---4--------------------------------|
    COULD EVER SAY         A LOVE TO LAST FOREVER

    A           Dm7             G               A
e|----------0---1-------1---------------3---------------0------------------|
B|--2---3-------------------1---0-----------0---2-----------2--------------|
G|------------------2---------------0---------------2-----------2----------|
D|--------------0----------------------------------------------------------|
A|--0-------------------------------------------0--------------------------|
E|------------------------------3------------------------------------------|
  I LOVE YOU   MORE THAN YOU’LL E____VER        KNOW

    A           Dm7             G               A
e|----------0---1-------1---------------3---------------0------------------|
B|--2---3-------------------1---0-----------0---2-----------2--------------|
G|------------------2---------------0---------------2-----------2----------|
D|--------------0----------------------------------------------------------|
A|----------------------------------------------0--------------------------|
E|------------------------------3------------------------------------------|          
  I LOVE YOU   MORE THAN YOU’LL E____VER        SEE


    A           Dm7             G               A
e|----------0---1-------1---------------3---------------0------------------|
B|--2---3-------------------1---0-----------0---3-----------3---2----------|
G|------------------2---------------0---------------2----------------------|
D|--------------0----------------------------------------------------------|
A|----------------------------------------------0---------------0----------|
E|------------------------------3------------------------------------------|          
  MORE THAN MY  HEART COULD     E____VER        SHOW


    A           Dm7             G               A
e|----------0---1-------1---------------3----------------------------------|
B|--2---3-------------------1---0-----------0---2--------------------------|
G|------------------2---------------0-----------2--------------------------|
D|--------------0-------------------------------2--------------------------|
A|----------------------------------------------0--------------------------|
E|------------------------------3------------------------------------------|           
  I LOVE YOU  MORE THAN YOU’LL  E____VER        KNOW

OUTRO
    A
e|-----------------0----------------------0---|
B|--2-----0-------------0--2--3-----0---------|
G|-----2-----2-------------------2-----2------|
D|--------------2-----------------------------|
A|--0-------------------------0---------------|
E|--------------------------------------------|
   
    A
e|-----------------0----------------------0--------|
B|--2-----0-------------0--2--3-----0--------0--2--|
G|-----2-----2-------------------2-----2--------2--|
D|--------------2-------------------------------2--|
A|--0-------------------------0-----------------0--|
E|-------------------------------------------------|

            
            
Suggest correction
Creating personal tab
Creating personal tab
You can edit any tab online and save it as your Personal.

You can edit, replace or remove any tab part or add personal notes – all changes will be seen only by you.

Personal tabs can be accessed anytime from any device, even offline.
Learn more »
Give kudos to tab author, rate the tab!
1 2 3 4 5
comments
print report bad tab
guest
You may want to rate the tab now too:
select rating
Wanna post a correction for this tab? Suggest correction