Oops, an error
Loading. Please wait.

Amor Tab

version 1
version 1

Whole song

Interactive

2,264 views 3 this week
no commentswrite comment
1 2 3 4 5
please rate
add to favorites
launch autoscroll
font size
0
reset
how to read this tab
guitar tuner
Autoscroll
slow
fast
+/-
esc
set tempo
stop
Help us to improve Ultimate-Guitar.com Take our survey!
×
Author
I am so glad I have a friend who is fluent in spanish and loves this song! She 
helped with the lyrics and directions- Thanks Bee!


Intro en guitarra: 
     C                 Am                F                 G 
e||--------3-----3--|--------3-----3--|--------3---------|------3----------| 
B||------1-----1----|------1-----1----|------1-------1---|--0-3-----0-3-0--| 
G||----0-----0------|----0-----0------|----2-------2---0-|--------0--------| 
D||-----------------|-----------------|--3-------3-------|-----------------| 
A||--3--------------|--0--------------|------------------|-----------------| 
E||-----------------|-----------------|------------------|-----------------| 

  C                  Am              F                  G 
------0-3---0-----|----0-3---0----|---------3---------|------------3---------|| 
----1-----1---1---|--0-----0---0--|-------1-----1-----|--------0-3---0-3-0---|| 
--0-------------0-|---------------|-----2-----2---2-0-|--------------------0-|| 
------------------|---------------|--1h3--------------|--0-3h4---------------|| 
--3~--------------|--5~-----------|-------------------|----------------------|| 
------------------|---------------|-------------------|----------------------|| 

    C            Am 
  Amor como el cielo 
F            G 
  se fue poniendo negro, 
    C         Am 
  amor, como siento 
F           G         C 
  haber perdido tu calor, 
             Am-F-G-C 
  y con el viento 
F              G         C 
  se va apagando la ilusión, 
             Am-F-G-C 
  que llevo dentro 
F            G 
  y ahora es el momento, 
F          G 
  por eso me lamento 
    C  G        Am      F    G 
   soolo  me encuentro yoo, hoy... 

   C               Am 
  Hoy he vuelto a recordar 
   F           G 
  todo lo que pude amar, 
  C           Am         F... G 
  y si puedes esperar escuuucha... 



			
			
Chorus:
   C           G 
  He venido a suplicar 
  Am          F 
  a pedirte una vez más, 
  C             F     Am   G 
  que me des otra oportunidad. 
  C          G 
  He venido desde allá 
  Am         F 
  a decirte la verdad 
  C               F    Am   Dm 
  que sin ti, ya no puedo volar 
  G      Cm 
  aaay amor, 

			


E||------------------------|| El bajo que se escucha de fondo... 
B||------------------------|| 
G||----------0-------------|| 
D||---------------3--2--0--|| 
A||-------3----------------|| 
E||----3-------------------|| 

G...    F   G... C 
aaaay amor, aaaamor. 


C        Am 
  Ya no puedo 
F           G 
  me falta fe y consuelo, 
    C           Am 
  amor, con el tiempo 
F           G          C     Am-F-G-C 
  he despertado de un largo sueño 
F         G           C      Am-F-G-C 
  solo espero un corazón sincero 
F            G 
  y ahora es el momento 
F          G 
  por eso me lamento 
    C  G        Am      F    G 
   soolo  me encuentro yoo, hoy... 

   C                Am 
  Hoy he vuelto a recordar 
   F           G 
  todo lo que pude amar, 
  C           Am         F... G 
  y si puedes esperar escuuucha... 


Coro... 

       G      Cm 
...... aaay amor, 

e||--------------------------||  El bajo que se escucha de fondo... 
B||--------------------------|| 
G||-----------0--------------|| 
D||--------0-------3--2--0---|| 
A||--------------------------|| 
E||-----3--------------------|| 

G...    F   G... C 
aaaay amor, aaaamor. 

Solo: 

E||----0---0---0----------|------1--1--0-------------0--| 
B||--1---1---1---1-3-3/5--|---------------3--1--3---1---| 
G||-----------------------|---2--2--2--0--4--2--4--0----| 
D||-----------------------|-----------------------------| 
A||-----------------------|-----------------------------| 
E||-----------------------|-----------------------------| 

-----0--------------0------0-1--|----1-3-5-------0--1----3--| 
----------1--0----1------1------|----------5--3---------1---| 
--0--0--0----2--0------0--------|--2----------4--5--2--0----| 
--------------------------------|---------------------------| 
--------------------------------|---------------------------| 
--------------------------------|---------------------------| 

--3--1--0--10--8--7------|--------15----10--15--15-------------| 
--5--3--0--12-----7--10--|-----13----12-------------15—-16/17--| 
---------------9-----10--|--14---------------------------------| 
-------------------------|----------------------17-------------| 
-------------------------|-------------------------------------| 
-------------------------|-------------------------------------| 

-----15--17-------17------|-----17----15----13----12----10---8---7--0--|| 
--17--------15-------\17--|----------------------------------------\8--|| 
---------------17---------|--17----16----14----12----10----9---7-------|| 
--------------------------|--------------------------------------------|| 
--------------------------|--------------------------------------------|| 
--------------------------|--------------------------------------------|| 

Coro 


       G      Cm 
...... aaay amor, 

e||--------------------------||  El bajo que se escucha de fondo... 
B||--------------------------|| 
G||-----------0--------------|| 
D||--------0-------3--2--0---|| 
A||--------------------------|| 
E||-----3--------------------|| 

G...    F   G... C 
aaaay amor, aaaamor. 

Suggest correction
Give kudos to tab author, rate the tab!
1 2 3 4 5
comments
print report bad tab
guest
You may want to rate the tab now too:
select rating
Please do not post tabs as comments. Select "correction" instead!