Oops, an error
Loading. Please wait.

Lift Prelude Bass Tab

308 views 3 this week
no commentswrite comment
1 2 3 4 5
please rate
add to favorites
launch autoscroll
font size
0
reset
guitar tuner
Autoscroll
slow
fast
+/-
esc
set tempo
stop
Help us to improve Ultimate-Guitar.com Take our survey!
×
Author
----------------------------------------------------------------------------
	      Lift Prelude - Christian City Church Oxford Falls
----------------------------------------------------------------------------

Tabbed By : goozagordon
e-mail: gooza80@hotmail.com
this is my first attempt at a tab.
simple song break for beginning service.

Tuning: EADG

Main Riff
G|--------------------------------------------------------------------|
D|--5---3-------------------------------------------------------------|
A|---5----1--3--------------------------------------------------------|
E|-------------1--3~--------------------------------------------------|

Main Riff variation
G|--------------------------------------------------------------------|
D|--5---3-------------------------------------------------------------|
A|---5----1--3--------------------------------------------------------|
E|-3-----------1--3~--------------------------------------------------|

note a major variation, just add in another G before you start the riff again.
sometimes i miss the riff and slide up to either
A|-/10----------------------------------------------------------------|
or
E|-/15----------------------------------------------------------------|

please buy the sheet music, this tab is to help the bass player because all the sheet music says is G...

| /  slide up
| \  slide down
| h  hammer-on
| p  pull-off
| ~  vibrato
| +  harmonic
| x  Mute note
============================================================================
Suggest correction
Give kudos to tab author, rate the tab!
1 2 3 4 5
comments
print report bad tab
guest
You may want to rate the tab now too:
select rating
Please do not post tabs as comments. Select "correction" instead!