Oops, an error
Loading. Please wait.

Thinking Of You Tab

version 1
version 1

Whole song

15,940 views 15 this week
no commentswrite comment
1 2 3 4 5
excellent!
x 4
add to favorites
launch autoscroll
font size
0
reset
how to read this tab
guitar tuner
Tab Pro tools
  • play this tab
  • loop segment
  • change instrument
  • show fretboard
  • metronome
×
Best way to learn
"Thinking Of You"
Autoscroll
slow
fast
+/-
esc
set tempo
stop
Difficulty
Tuning
intermediate
D# G# C# F# A# D#
Thinking of You- Christian Kane
From Leverage: The Studio Job

Tuning Half-Step Down
Tip: Listen to song for timing

Intro:

E  --x--3--2-----x--2--10--3--2--x--2--3--2--x--3--2--10-------------------|
B  --3--------3--3---------------3-----------3-----------------------------|
G  --2-----------0---------------0-----------0-----------------------------|
D  --0-----------0---------------2-----------0-----------------------------|
A  --0-----------2---------------2-----------2-----------------------------|
E  --x-----------3---------------x-----------3-----------------------------|

Verse 1:

E  --x--3--2-----x--2--10--3--2--x--2--3--2--x--3--2--10--3--2-------------|
B  --3--------3--3---------------3-----------3-----------------------------|
G  --2-----------0---------------0-----------0-----------------------------|
D  --0-----------0---------------2-----------0-----------------------------|
A  --0-----------2---------------2-----------2-----------------------------|
E  --x-----------3---------------x-----------3-----------------------------|

E  --x--3--2-----x--2--10--3--2--x--2--3--2-----------x--------------------|
B  --3--------3--3---------------3-----------2--3--2--2--------------------|
G  --2-----------0---------------0--------------------2--------------------|
D  --0-----------0---------------2--------------------2--------------------|
A  --0-----------2---------------2--------------------0--------------------|
E  --x-----------3---------------x--------------------x--------------------|

Chorus:

  G
When a new moon shines through your window
  D
Or you hear a sad song on the radio
  Em                                       D
Then you don't know why but just start to cry
  G
Or you're driving 'round on a sunny day
  D
And outta nowhere comes the pouring rain
  C                                      D
Then a memory hits you right out of the blue
           G
Thats just me
  D    G    D
Thinking of you

E  --x--3--2-----x--3--2--10------------------|
B  --3--------3--3----------------------------|
G  --2-----------0----------------------------|
D  --0-----------0----------------------------|
A  --0-----------2----------------------------|
E  --x-----------3----------------------------|

Verse 2:

E  --x--3--2-----x--2--10--3--2--x--2--3--2--x--3--2--10--3--2-------------|
B  --3--------3--3---------------3-----------3-----------------------------|
G  --2-----------0---------------0-----------0-----------------------------|
D  --0-----------0---------------2-----------0-----------------------------|
A  --0-----------2---------------2-----------2-----------------------------|
E  --x-----------3---------------x-----------3-----------------------------|

E  --x--3--2-----x--2--10--3--2--x--2--3--2-----------x--------------------|
B  --3--------3--3---------------3-----------2--3--2--2--------------------|
G  --2-----------0---------------0--------------------2--------------------|
D  --0-----------0---------------2--------------------2--------------------|
A  --0-----------2---------------2--------------------0--------------------|
E  --x-----------3---------------x--------------------x--------------------|

Chorus:

  G
When a new moon shines through your window
  D
Or you hear a sad song on the radio
  Em                                       D
Then you don't know why but just start to cry
  G
Or you're driving 'round on a sunny day
  D
And outta nowhere comes the pouring rain
  C                                        D
Then a memory hits you right out of the blue
            G
That's just me
  D     G    Em
Thinking of you

Bridge:

  G                                     D
And I'm thinking about the road you're on
  G                          Em
I'm thinkin about you coming home
  G                                  D
I'm wondering if you got your radio on

Solo:

E  --3--2--3--2-----3--2--3--2--10---3-2---3--2--3--2------------------|
B  --------------3-------------------------------------3--2--0---------|
G  ------------------------------------------------------------2--0----|
D  --------------------------------------------------------------------|
A  --------------------------------------------------------------------|
E  --------------------------------------------------------------------|

Chorus 2:

  G
When you find your way to another town
  D
An someone tries to lay it down
  Em                                   D
And feeling hits you right out of the blue
      C
It's just me
  D          G
Thinking of you
           C
That's just me
  D         G
Thinking of you.

Outro:

E  --x--3--2-----x--2--10--3--2--x--2--3--2--x--3--2--10--3--2--------------|
B  --3--------3--3---------------3-----------3---------------3--------------|
G  --2-----------0---------------0-----------0---------------2--------------|
D  --0-----------0---------------2-----------0---------------0--------------|
A  --0-----------2---------------2-----------2---------------x--------------|
E  --x-----------3---------------x-----------3---------------x--------------|

(Let the D at the end ring)


Tab by: Belen
comments
print report bad tab
I want to post or [tab]
guest
You may want to rate the tab now too:
select rating
Please do not post tabs as comments. Select "correction" instead!