Oops, an error
Loading. Please wait.

Allelujah tab

433 views 3 this week
no commentswrite comment
1 2 3 4 5
3 more votes to show rating
add to favorites
×
Save as Personal and add changes to this tab that will be seen only by you. Learn more ›
×
You can save this tab as Personal to edit and correct it or add notes. All changes will be seen only by you. Learn more »
launch autoscroll
font size
0
reset
how to read this tab
guitar tuner
edit
Autoscroll
slow
fast
+/-
esc
set tempo
stop
Tab written by: Martin Karlsson (gibson_sg61@hotmail.com).
Comments, questions but most important, corrections are welcomed

D tuning: DGCFAD

Okej, nu är den lite uppdaterad. Det står "T" och "I" under taben för versen
det är en förklaring vilketfinger man ska använda. "T" för tumme (thumb) och
"I" för pekfinger (index finger). Det är samma grej genom hela låten sen så jag
tyckte inte det behövdes mer tab. Hoppas det blev en liten förbättring.

   C               C1                D               Em
E -------------| |--------------| |--------------|  |-------------|
H ---1-----1---| |----0-----0---| |----3-----3---|  |---0-----0---|
G -----0-----0-| |------0-----0-| |------2-----2-|  |-----0-----0-|
D -------2-----| |--------------| |--------0-----|  |-------2-----|
A -3-----------| |--------3-----| |--0-----------|  |-------------|
E -------------| |--3-----------| |--------------|  |-0-----------|

   Bm               Am
E -------------|  |-------------|
H ---3-----3---|  |---1-----1---|
G -----4-----4-|  |-----2-----2-|
D -------4-----|  |-------2-----|
A -2-----------|  |-0-----------|
E -------------|  |-------------|

[Intro]
     G
E -------------------------------------------------------|
H -----0-----0------0-----0------0-----0------0----------|
G -------0-----0------0-----0------0-----0------0--------|
D ---------0------------0------------0----------------0--|
A ------------------------------------------------0h2----|
E ---3------------3------------3------------3------------|

[Verse] Fig 1
   G                                                C
E -----------------------------------------------|---------------------------|
H ---0-----0------0-----0------0-----0------0----|----0-----0------0-----0---|
G -----0-----0------0-----0------0-----0------0--|------0-----0------0-----0-|
D -------0------------0------------0-------------|---------------------------|
A -----------------------------------------------|--------3------------3-----|
E -3------------3------------3------------3------|--3------------3-----------|

   G
E ---------------------------|
H ---0-----0------0----------|
G -----0-----0------0--------|
D -------0----------------0--|
A --------------------0h2----|
E -3------------3------------|

   G                              C1      G
E ----------------------------------------------------|---------------------------|
H ---0-----0------0-----0------0-----0------0-----0---|----0-----0------0-----0---|
G -----0-----0------0-----0------0-----0------0-----0-|------0-----0------0-----0-|
D -------0------------0-------------------------0-----|--------0------------0-----|
A ---------------------------------3------------------|---------------------------|
E -3------------3------------3------------3-----------|--3------------3-----------|

    D
E -----------------------------------------------------|
H ---3------3------3-----3------3-----3------3-----3---|
G -----2------2------2-----2------2-----2------2-----2-|
D --------0------------0------------0------------0-----|
A --0------------0------------0------------0-----------|
E -----------------------------------------------------|

   Em
E ----------------------------------------------------|
H ---0-----0------0-----0------0-----0------0-----0---|
G -----0-----0------0-----0------0-----0------0-----0-|
D -------2------------2------------2------------2-----|
A ----------------------------------------------------|
E -0------------0------------0------------0-----------|

E ------------------------------------------------------|
H ---1-----1------1-----0------1-----1------1-----0-----|
G -----0-----0------0-----0------0-----0------0-----0---|
D -------2------------2-------------------------------0-|
A -3------------3------------3-----3------3-----3-------|
E ------------------------------------------------------|

   G                              C1      G
E ----------------------------------------------------|---------------------------|
H ---0-----0------0-----0------0-----0------0-----0---|----0-----0------0-----0---|
G -----0-----0------0-----0------0-----0------0-----0-|------0-----0------0-----0-|
D -------0------------0-------------------------0-----|--------0------------0-----|
A ---------------------------------3------------------|---------------------------|
E -3------------3------------3------------3-----------|--3------------3-----------|

    D                                                   End Fig 1
E -----------------------------------------------------|
H ---3------3------3-----3------3-----3------3-----3---|
G -----2------2------2-----2------2-----2------2-----2-|
D --------0------------0------------0------------0-----|
A --0------------0------------0------------0-----------|
E -----------------------------------------------------|

[Verse] Fig 1
G                     C1             G
A recurring vision of her out on the lawn
G                     C1       G                 D
The early haze of the seventies sun kept the fevers gone
Em              C
Curious, placid, green
G                       C1   G                   D
Now she’s a well faring maiden, a brunette of the dream

[Pre-chorus] Fig 2
Bm                          Em
But those where the days, so much like today
C                          D
And that was the difference indifference makes

[Chorus] Fig 2
Em      Bm
  Allelujah
Bm      Am
  Allelujah
Am      Em
  Allelujah

[Verse] Fig 1
Summers past all feel as one but dismaled by a move
For reasons I did not understand, but for a new school
And if ever you have fought to hold tears infesting eyes
As you realize a friend is not

[Pre-chorus] Fig 2
But those where the days, so much like today
You say drugs and woman but game is still game

[Chorus] Fig 3
Allelujah

[Solo] Em C Em Em C D

[Verse] Fig 1
The old house repainted now but still stuck on that street
Children melt in topaz light of faded memory
No matter how it ends cherish these moments
Of solace found in friends

[Pre-chorus] Fig 2
For these are your days continue your play
For you know not the next time you will meet
Someone who knows you best to date
C       D         Am      Em
and who loves you All the same

[Chorus] Fig 3
Allelujah

Fig 3

            
            
Suggest correction
Creating personal tab
Creating personal tab
You can edit any tab online and save it as your Personal.

You can edit, replace or remove any tab part or add personal notes – all changes will be seen only by you.

Personal tabs can be accessed anytime from any device, even offline.
Learn more »
Give kudos to tab author, rate the tab!
1 2 3 4 5
comments
print report bad tab
guest
Wanna post a correction for this tab? Suggest correction