Oops, an error
Loading. Please wait.

Deliverance chords

49 views 1 this week
no commentswrite comment
1 2 3 4 5
3 more votes to show rating
add to favorites
×
Save as Personal and add changes to this tab that will be seen only by you. Learn more ›
×
You can save this tab as Personal to edit and correct it or add notes. All changes will be seen only by you. Learn more »
launch autoscroll
font size
0
reset
transpose
0
reset
display chords
guitar tuner
edit
Autoscroll
slow
fast
+/-
esc
set tempo
stop
Strumming
There is no strumming pattern for this song yet. and get +5 IQ
Capo 1st

Jag chansar på att Christian har Capo på 1a bandet.
Angående det sista Bmollet i refrängen så kan det lika
gärna vara ett Em...iaf i mina öron. Men jag är ju
mer eller mindre tondöv ibland har jag märkt.

   G
E|-----------------------------------|
B|-----------------------------------|
G|-------0-------0-------0-----------|
D|---0-------0-------0--------0---0--|
A|-----------------------------------|
E|-3---3---3---3---3---3---3----3----|

   G                        F#         Em
E|-----------------------------------|-----------------------------------|
B|-----------------------------------|-----------------------------------|
G|-------0-------0----------------0--|-------0-------0-------------------|
D|---0-------0-------0---0---0-------|---2-------2-----2----0--0h2p0---0-|
A|-----------------------------------|-2---2---2---2-----2-----------2---|
E|-3---3---3---3---3---3----2---2----|-----------------------------------|

   C                                  G
E|----------------------------------|-----------------------------------|
B|----------------------------------|-----------------------------------|
G|-------0-------0-------0----------|-------0-------0-------0-----------|
D|---2-------2-------2-------2---0--|---0-------0-------0--------0---0--|
A|-3---3---3---3---3---3---3---3----|-----------------------------------|
E|----------------------------------|-3---3---3---3---3---3---3----3----|

   C                                  G                D                G
E|----------------------------------|-----------------------------------|
B|----------------------------------|------------------------3----------|
G|-------0-------0-------0----------|-------0------------2-------2---0--|
D|---2-------2-------2-------2---0--|---0-------0---0--0---0---0---0----|
A|-3---3---3---3---3---3---3---3----|-----------------------------------|
E|----------------------------------|-3---3---3---3---------------------|


[Verse]
G                        Em
Damned but flowing by the shiver
G                        Em
Up the spine and down the river

C                G
And I hope I can wither
C                         G    D   G
And return in the wake of winter

[Verse]
Built to keep when all is calm
But to plague when wayward is longed
And I hope I can forgive him
And I hope they can forgive me

[Chorus]
C            G        Bm
So long so long so long
               Em
Since we where young
C            G       D
So long so long so long
     Em       A  C     D
My maiden one

[Solo]
G  D  Bm  C

Bm                      C
It’s at the hand of the waver
Bm                        D
Toss me a line and I will save her

[Chorus]
C            G        Bm
So long so long so long
               Em
Since we where young
C            G       D
So long so long so long
     Em       A  C     D
My maiden one

[Solo]
G  D  Bm  C

            
            
Suggest correction
Creating personal tab
Creating personal tab
You can edit any tab online and save it as your Personal.

You can edit, replace or remove any tab part or add personal notes – all changes will be seen only by you.

Personal tabs can be accessed anytime from any device, even offline.
Learn more »
Give kudos to tab author, rate the tab!
1 2 3 4 5
comments
print report bad tab
guest
Wanna post a correction for this tab? Suggest correction