Oops, an error
Loading. Please wait.

Homeward Rolling Soldier chords

version 2
version 2

Whole song

103 views 1 this week
no commentswrite comment
1 2 3 4 5
3 more votes to show rating
add to favorites
×
Save as Personal and add changes to this tab that will be seen only by you. Learn more ›
×
You can save this tab as Personal to edit and correct it or add notes. All changes will be seen only by you. Learn more »
launch autoscroll
font size
0
reset
transpose
0
reset
simplify chords
display chords
guitar tuner
edit
Autoscroll
slow
fast
+/-
esc
set tempo
stop
Strumming
There is no strumming pattern for this song yet. and get +5 IQ
Tab written by: Martin Karlsson (gibson_sg61@hotmail.com).
Comments, questions but most important, corrections are welcomed

Am7: x0201x

[Intro]
   Dm
E ---------------------|
H ---3----3---3---1-3--|
G ---2----2---2---2-2--|
D -0----0----0---0-----|
A ---------------------|
E ---------------------|

[Solo]
   Dm     C Dm 2nd time
E -1-1-3-1-1-1-3-1-0-1-0---------------0-0-0-1-3-1-0----1-0-------0-----|-0-----|
H -3-3-3-3-3-3-3-3-3-3-3-1--1-1-1---1--1-1-1-1-1-1-1-3--3-3-3-1-3-3-3-1-|-3-3-1-|
G -2--------(2)-------------0-0-0-0-0--0----------------2---2-2-2---2-2-|---2-2-|
D -0--------(0)-------------2-2-2-0-2--2----------------0---------------|-------|
A --------------------------3-3-3-x-3--3--------------------------------|-------|
E --------------------------------3-------------------------------------|-------|

Dm                              C
   With sleepy eyes we made our way across
Am7                                      Dm
   Where friendship's found friendship is often lost
Dm                        C
   With valiant wishes of becoming ends
Am7               Dm
   But there will be no such with you my friend

[Refräng]
          F           C     Dm
I'm going home, going home
   Gm                           C Dm
To be where my water meets my       stones
          F           C    Dm
I'm going home, going home
    Gm                             C Dm
The social traveller journeys on       his own

                                     C
Darkness you don't know where you're going now
                              Dm
There never was light in your eyes somehow
                                  C
And who's to blame when something living's dead?
Am7                                 Dm
   So many words should have stayed in your head
C         Am7                      Dm
  So many thoughts should not have left your bed

[Refräng]
I'm going home, going home
To tend to the lover and the dog
I'm going home, going home
He who yearns to age must firstly grow
Gm                                  Dm   C  Dm
That which is your prime you do not know

[Solo]
   Dm     C Dm 2nd time
E -1-1-3-1-1-1-3-1-0-1-0---------------0-0-0-1-3-1-0----1-0-------0-----|-0-----|
H -3-3-3-3-3-3-3-3-3-3-3-1--1-1-1---1--1-1-1-1-1-1-1-3--3-3-3-1-3-3-3-1-|-3-3-1-|
G -2--------(2)-------------0-0-0-0-0--0----------------2---2-2-2---2-2-|---2-2-|
D -0--------(0)-------------2-2-2-0-2--2----------------0---------------|-------|
A --------------------------3-3-3-x-3--3--------------------------------|-------|
E --------------------------------3-------------------------------------|-------|

Bb  C   Bb  C    C
Boy boy boy boy

          F           C 
I'm going home, going home
   Bb                        F
To drink from the chalis of another
          F           C    Dm
I'm going home, going home
     Gm                             Dm
To mount and feed and groom and ride alone
    Gm                       Dm
For he who is myself I do not know
   Gm                               Dm
To mount and feed and groom and ride alone
    Gm                       Dm    C   Dm
For he who is myself I do not know

            
            
Suggest correction
Creating personal tab
Creating personal tab
You can edit any tab online and save it as your Personal.

You can edit, replace or remove any tab part or add personal notes – all changes will be seen only by you.

Personal tabs can be accessed anytime from any device, even offline.
Learn more »
Give kudos to tab author, rate the tab!
1 2 3 4 5
comments
print report bad tab
guest
Wanna post a correction for this tab? Suggest correction