Oops, an error
Loading. Please wait.

Ohnight chords

58 views 1 this week
no commentswrite comment
1 2 3 4 5
3 more votes to show rating
add to favorites
×
Save as Personal and add changes to this tab that will be seen only by you. Learn more ›
×
You can save this tab as Personal to edit and correct it or add notes. All changes will be seen only by you. Learn more »
launch autoscroll
font size
0
reset
transpose
0
reset
display chords
guitar tuner
edit
Autoscroll
slow
fast
+/-
esc
set tempo
stop
Strumming
There is no strumming pattern for this song yet. and get +5 IQ
Tab written by: Martin Karlsson (gibson_sg61@hotmail.com).
Comments, questions but most important, corrections are welcomed
Capo 2nd fret

[Intro solo]
E --5~--|--5---5--------------------------------------/8-----8--8-------|
H --5~--|--5-----5--------------------------------5---/--8--------8-----|
G --5~--|--5-------5----4~--7-4--5-4---4--------5----------9--------9---|
D ------|----------------------------7----7-5-7-------------------------|
A ------|---------------------------------------------------------------|
E ------|---------------------------------------------------------------|

E --10---10-------------------------------------------------------------|
H --10---10-----------11--------11--------11---------5-------5----------|
G --11---11----13b1/4----13b1/4----13b1/4------8b1/4---8b1/4---8b1/4--5-|
D ----------------------------------------------------------------------|
A ----------------------------------------------------------------------|
E ----------------------------------------------------------------------|

E -------------------------------|
H --------5---------3--3------1--|
G ------5---5---5/--4--4------2--|
D --5h7-------7-----5--5------2--|
A ----------------------------0--|
E ------------------------0h3----|

[Intro]
Am
Am G Am

[Verse]
Am         G            Am
Befallen beauty here to breathe
  C                   Am
To seek position and to heed
C
The battles have started
Am
Your enemies are counted
Am      G               Am
As your judges take their seats

[Chorus]
     C                  G            Am
But tonight celebrated night we’re on fire for the first
     F
time in our life
            C                 G             Am
You’re not working you’re not searching for

[Verse]
Can I crack some porcelain eyes?
You have not lived till something you love has died
Bedew your tongue and join in what’s sung
In vacant streets as you walk by

[Chorus]
     C                  G            Am
But tonight celebrated night we’re on fire for the first
     F
time in our life
            C                 G             Am
You’re not working you’re not searching for

            
            
Suggest correction
Creating personal tab
Creating personal tab
You can edit any tab online and save it as your Personal.

You can edit, replace or remove any tab part or add personal notes – all changes will be seen only by you.

Personal tabs can be accessed anytime from any device, even offline.
Learn more »
Give kudos to tab author, rate the tab!
1 2 3 4 5
comments
print report bad tab
guest
Wanna post a correction for this tab? Suggest correction