Oops, an error
Loading. Please wait.

Lesson Learned tab

13 views 3 this week
no commentswrite comment
1 2 3 4 5
3 more votes to show rating
add to favorites
×
Save as Personal and add changes to this tab that will be seen only by you. Learn more ›
×
You can save this tab as Personal to edit and correct it or add notes. All changes will be seen only by you. Learn more »
launch autoscroll
font size
0
reset
how to read this tab
guitar tuner
edit
Autoscroll
slow
fast
+/-
esc
set tempo
stop
[Intro]
   Em              Dadd4/F#  G   Cadd9                    Cmaj7
e|-----------------|----------------------|--------------------|
B|-----------------|------------------3-3-|-----3-3-----3-0----|
G|-----0-0-----0-0-|---0------0-------0-0-|-----0-0-----0-0----|
D|-----2-2-----2-2-|---0------0-----------|--------------------|
A|-----------------|--------------3-------|-3-------3----------|
E|-0-------0-------|-2------3-------------|--------------------|

[Verse 1]
   Em              Dadd4/F#  G    Cadd9                              Cmaj7 C         G         G    Dadd4/F#
e|-----------------|----------------------|--------------------|-------------------|---------------------|
B|-----------------|------------------3-3-|-----3-3-----3-3----|-----3-0-------1-1-|---------------------|
G|-----0-0-----0-0-|---0------0-------0-0-|-----0-0-----0-0----|-----0-0-------0-0-|-----0-0-----0-----0-|
D|-----2-2-----2-2-|---0------0-----------|--------------------|-------------------|-----0-0-----0-----0-|
A|-----------------|--------------3-------|-3-------3----------|-3---------3-------|---------------------|
E|-0-------0-------|-2------3-------------|--------------------|-------------------|-3---------3-----2---|
   Em
e|-----------------|-----------------|
B|-----------------|-----------------|
G|-----0-0-----0-0-|-----0-0---------|
D|-----2-2-----2-2-|-----2-2---2---2-|
A|-----------------|-----------------|
E|-0-------0-------|-0-------0---0---|
Em                Dadd4/F# G  Cadd9              Cmaj7
I won't let myself forget the monster we created
   C      G           G Dadd4/F# Em
My body's achin', and now you're cold

   Em              Dadd4/F#  G    Cadd9                              Cmaj7 C         G         G    Dadd4/F#
e|-----------------|----------------------|--------------------|-------------------|---------------------|
B|-----------------|------------------3-3-|-----3-3-----3-3----|-----3-0-------1-1-|---------------------|
G|-----0-0-----0-0-|---0------0-------0-0-|-----0-0-----0-0----|-----0-0-------0-0-|-----0-0-----0-----0-|
D|-----2-2-----2-2-|---0------0-----------|--------------------|-------------------|-----0-0-----0-----0-|
A|-----------------|--------------3-------|-3-------3----------|-3---------3-------|---------------------|
E|-0-------0-------|-2------3-------------|--------------------|-------------------|-3---------3-----2---|
   Em
e|-----------------|-----------------|
B|-----------------|-----------------|
G|-----0-0-----0-0-|-----0-0---------|
D|-----2-2-----2-2-|-----2-2---2---0-|
A|-----------------|-----------------|
E|-0-------0-------|-0-------0---0---|
Em                         Dadd4/F# G   Cadd9  Cmaj7
There's no difference what I do, I can't fix it
  C        G       G Dadd4/F# Em
A thousand tries are getting old

[Chorus]
   C                 Dadd4     Am7
e|-----------------|-------------------|-----------------|
B|-----1-1---1-1/3-|---3---3-------1-1-|-----1-1-----1-1-|
G|-----0-0---0-0---|---0---0-------0-0-|-----0-0-----0-0-|
D|-----------------|-------------------|-----------------|
A|-3-------3----/5-|-5---5-----0-------|-0-------0-------|
E|-----------------|-------------------|-----------------|
   C            Dadd4    Am7
So you will be a lesson learned

   C                 Dadd4     Am7                                     D                   Am7
e|-----------------|-------------------|-----------------|-----------------2-2-|-----2-2-----------|
B|-----1-1---1-1/3-|---3---3-------1-1-|-----1-1-----1-1-|-----1-0h3-------3-3-|-----3-0-------1-1-|
G|-----0-0---0-0---|---0---0-------0-0-|-----0-0-----0-0-|-----0-0-------------|---------------0-0-|
D|-----------------|-------------------|-----------------|-------------0-------|-0-----------------|
A|-3-------3----/5-|-5---5-----0-------|-0-------0-------|-0-------------------|-----------0-------|
E|-----------------|-------------------|-----------------|---------------------|-------------------|
  (Am7)
e|-----------------|
B|-----1-1-----1-1-|
G|-----0-0-----0-0-|
D|-----------------|
A|-0-------0-------|
E|-----------------|
    C                   Dadd4      Am7
And we will bleed from the scars we earned
D                  Am7
Words were said and tables turned

   Cadd9                                     Am7
e|--------------------|--------------------|-----------------|-----------------|
B|-----3-3-----3-3----|-----3-3------------|-----1-1-----1-1-|-----1-----------|
G|--------------------|--------------------|-----0-0-----0-0-|-----0-----------|
D|--------------------|--------------------|-----------------|-----------------|
A|-3-------3----------|-3------------------|-0-------0-------|-0---------------|
E|--------------------|--------------------|-----------------|-----------------|
          Cadd9
Pages burned
          Am7
A lesson learned

[Verse 2]
   Em              Dadd4/F#  G    Cadd9                              Cmaj7 C         G         G    Dadd4/F#
e|-----------------|----------------------|--------------------|-------------------|---------------------|
B|-----------------|------------------3-3-|-----3-3-----3-3----|-----3-0-------1-1-|---------------------|
G|-----0-0-----0-0-|---0------0-------0-0-|-----0-0-----0-0----|-----0-0-------0-0-|-----0-0-----0-----0-|
D|-----2-2-----2-2-|---0------0-----------|--------------------|-------------------|-----0-0-----0-----0-|
A|-----------------|--------------3-------|-3-------3----------|-3---------3-------|---------------------|
E|-0-------0-------|-2------3-------------|--------------------|-------------------|-3---------3-----2---|
   Em
e|-----------------|---------------------|
B|-----------------|---------------------|
G|-----0-0-----0-0-|---------------------|
D|-----2-2-----2-2-|---2---2-2---2---2-2-|
A|-----------------|---------------------|
E|-0-------0-------|-0---0-----0---0-----|
Em                      Dadd4/F# G   Cadd9  Cmaj7
Give it time, it's gonna hurt, it's not easy
     C     G     G Dadd4/F# Em
Well, everything I feel is true

   Em              Dadd4/F#  G    Cadd9                              Cmaj7 C         G         G    Dadd4/F#
e|-----------------|----------------------|--------------------|-------------------|---------------------|
B|-----------------|------------------3-3-|-----3-3-----3-3----|-----3-0-------1-1-|---------------------|
G|-----0-0-----0-0-|---0------0-------0-0-|-----0-0-----0-0----|-----0-0-------0-0-|-----0-0-----0-----0-|
D|-----2-2-----2-2-|---0------0-----------|--------------------|-------------------|-----0-0-----0-----0-|
A|-----------------|--------------3-------|-3-------3----------|-3---------3-------|---------------------|
E|-0-------0-------|-2------3-------------|--------------------|-------------------|-3---------3-----2---|
   Em
e|-----------------|-----------------|-----------------|
B|-----------------|-----------------|-----------------|
G|-----0-0-----0-0-|-----0-0-----0-0-|-----0-0-----0---|
D|-----2-2-----2-2-|-----2-2-----2-2-|-----2-2-----2---|
A|-----------------|-----------------|-----------------|
E|-0-------0-------|-0-------0-------|-0-------0-------|
Em                          Dadd4/F# G      Cadd9   Cmaj7
I give you space and still I hope that will hurt you
    C        G      G Dadd4/F# Em
But old Lord knows I'm missing you
Em
And I'm not gonna wait for you to miss me too, so

[Chorus]
   C                 Dadd4     Am7
e|-----------------|-------------------|-----------------|
B|-----1-1---1-1/3-|---3---3-------1-1-|-----1-1-----1-1-|
G|-----0-0---0-0---|---0---0-------0-0-|-----0-0-----0-0-|
D|-----------------|-------------------|-----------------|
A|-3-------3----/5-|-5---5-----0-------|-0-------0-------|
E|-----------------|-------------------|-----------------|
C            Dadd4    Am7
You will be a lesson learned

   C                 Dadd4     Am7                                     D                   Am7
e|-----------------|-------------------|-----------------|-----------------2-2-|-----2-2-----------|
B|-----1-1---1-1/3-|---3---3-------1-1-|-----1-1-----1-1-|-----1-0h3-------3-3-|-----3-0-------1-1-|
G|-----0-0---0-0---|---0---0-------0-0-|-----0-0-----0-0-|-----0-0-------------|---------------0-0-|
D|-----------------|-------------------|-----------------|-------------0-------|-0-----------------|
A|-3-------3----/5-|-5---5-----0-------|-0-------0-------|-0-------------------|-----------0-------|
E|-----------------|-------------------|-----------------|---------------------|-------------------|
  (Am7)
e|-----------------|
B|-----1-1-----1-1-|
G|-----0-0-----0-0-|
D|-----------------|
A|-0-------0-------|
E|-----------------|
    C                   Dadd4      Am7
And we will bleed from the scars we earned
D                  Am7
Words were said and tables turned

   Cadd9                                     Am7
e|--------------------|--------------------|-----------------|-----------------|
B|-----3-3-----3-3----|-----3-3------------|-----1-1-----1-1-|-----1-----------|
G|--------------------|--------------------|-----0-0-----0-0-|-----0-----------|
D|--------------------|--------------------|-----------------|-----------------|
A|-3-------3----------|-3------------------|-0-------0-------|-0---------------|
E|--------------------|--------------------|-----------------|-----------------|
            Cadd9
A page is burned
               Am7
And a lesson learned

[Bridge]
   Cadd9        Dadd4        F#dim       Em
e|-0---------|--0---------|--0---------|-0---------|
B|-3---------|--3---------|-/7---------|-0---------|
G|-0-(strum)-|--0-(strum)-|--0-(strum)-|-0-(strum)-|
D|-2---------|-/4---------|-/8---------|-2---------|
A|-3---------|-/5---------|-/9---------|-2---------|
E|-----------|------------|------------|-0---------|
Cadd9  
Don't know what to say to
Dadd4  
Try and make you stay
F#dim                        Em  
So I should probably let you go

   Cadd9        Dadd4        F#dim       Em
e|-0---------|--0---------|--0---------|-0-------------------------|
B|-3---------|--3---------|-/7---------|-0-------------------------|
G|-0-(strum)-|--0-(strum)-|--0-(strum)-|-0-(strum once & let ring)-|
D|-2---------|-/4---------|-/8---------|-2-------------------------|
A|-3---------|-/5---------|-/9---------|-2-------------------------|
E|-----------|------------|------------|-0-------------------------|
Cadd9  
But see I've done my time and
Dadd4  
Now I'm done with cryin'
F#dim                  Em  
Now I've gotta let you go

   Cadd9                    Dadd4
e|-0---------|-0---------|--0---------|-0---------|
B|-3---------|-3---------|--3---------|-3---------|
G|-0-(strum)-|-0-(strum)-|--0-(strum)-|-0-(strum)-|
D|-2---------|-2---------|-/4---------|-4---------|
A|-3---------|-3---------|-/5---------|-5---------|
E|-----------|-----------|------------|-----------|
                        Cadd9  
And I just need you to know...
Dadd4  
Woah, woah...

[Outro]
   C           Dadd4      Am7                     C           Dadd4      Am7
e|-0---------|--0---------0---------|-0---------|-0---------|--0---------0---------|-0---------|
B|-1---------|-/3---------1---------|-1---------|-1---------|-/3---------1---------|-1---------|
G|-0-(strum)-|--0-(strum)-0-(strum)-|-0-(strum)-|-0-(strum)-|--0-(strum)-0-(strum)-|-0-(strum)-|
D|-2---------|-/4---------2---------|-2---------|-2---------|-/4---------2---------|-2---------|
A|-3---------|-/5---------0---------|-0---------|-3---------|-/5---------0---------|-0---------|
E|-----------|----------------------|-----------|-----------|----------------------|-----------|
     C             Dadd4  Am7  
That you will be a lesson learned
    C                      Dadd4    Am7  
And we will bleed from the scars we earned

   D                           Am7         Cadd9        Dadd4       Am7
e|-2-------------------------|-0---------|-0---------|--0---------|-0---------|
B|-3-------------------------|-1---------|-3---------|--3---------|-1---------|
G|-2-(strum once & let ring)-|-0-(strum)-|-0-(strum)-|--0-(strum)-|-0-(strum)-|
D|-0-------------------------|-2---------|-2---------|-/4---------|-2---------|
A|---------------------------|-0---------|-3---------|-/5---------|-0---------|
E|---------------------------|-----------|-----------|------------|-----------|
                  D                         Am7  
I'm sorry for the words we said and all the tables turned
                 Cadd9    Dadd4
Another page to burn
                  Am7
You are my lesson learned

************************************

| h   Hammer-on
| /   Slide up

************************************

            
            
Suggest correction
Creating personal tab
Creating personal tab
You can edit any tab online and save it as your Personal.

You can edit, replace or remove any tab part or add personal notes – all changes will be seen only by you.

Personal tabs can be accessed anytime from any device, even offline.
Learn more »
Give kudos to tab author, rate the tab!
1 2 3 4 5
comments
print report bad tab
guest
You may want to rate the tab now too:
select rating
Wanna post a correction for this tab? Suggest correction