Oops, an error
Loading. Please wait.

Yellow River chords

version 3
version 3

Whole song

Interactive

619 views 24 this week
no commentswrite comment
1 2 3 4 5
x 4
add to favorites
×
Save as Personal and add changes to this tab that will be seen only by you. Learn more ›
×
You can save this tab as Personal to edit and correct it or add notes. All changes will be seen only by you. Learn more »
launch autoscroll
font size
0
reset
transpose
0
reset
display chords
guitar tuner
backing track
0:00
0:00
edit
Autoscroll
slow
fast
+/-
esc
set tempo
stop
Author
Difficulty
Strumming
There is no strumming pattern for this song yet. and get +5 IQ
VARIANT 1:

[Intro]
 E
e| -----------------|---------------------|
B| -----------------|-----5-5-5-----5-5-5-|
G| -----------------|-4-6-------4-6-------|
D| -----------------|---------------------|
A| -6-6-6-----6-6-6-|---------------------|
E| -------6-8-------|---------------------|

[Verse 1]
E                   G#m            C#m                G#m
So long boy you can take my place, got my papers I've got my pay
   C#m                       Fm            Bb     F/Fm Gm F/Fm
So pack my bags, and I'll be on my way, to yellow river

E                    G#m
Put my guns down the war is won,
C#m                    G#m
fill my glass high the time has come
    C#m               Fm                 Bb     F/Fm Gm F/Fm
I'm going back to the place that I love, yellow river

[Chorus]
E                             G#m            Bb
Yellow river, yellow river is in my mind and in my eyes
E                             G#m                  Bb
Yellow river, yellow river is in my blood it's the place I love

C#m                         Bb
Got no time for explanation got no time to lose,
  Fm
tomorrow night you'll find me
         Bb                     C#m         F/Fm/A Bb
sleeping underneath the moon at yellow river

[Verse 2]
E                      G#m         C#m                  G#m
Cannon fire lingers in my mind, I'm so glad that I'm still alive
    C#m                Fm                     Bb     Fm Gm Fm
And I've been gone for such a long time, from yellow river

E              G#m               C#m                 G#m
I remember the nights were cool, I can still see the water pool
    C#m            Fm                     Bb     F/Fm Gm F/Fm
And I remember the girl that I knew, from yellow river

[Chorus]
E                             G#m            Bb
Yellow river, yellow river is in my mind and in my eyes
E                             G#m                  Bb
Yellow river, yellow river is in my blood it's the place I love

C#m                         Bb
Got no time for explanation got no time to lose,
  Fm
tomorrow night you'll find me
         Bb                     C#m         F/Fm/A Bb
sleeping underneath the moon at yellow river

E                             G#m            Bb
Yellow river, yellow river is in my mind and in my eyes
E                             G#m                  Bb
Yellow river, yellow river is in my blood it's the place I love

[Outro]
 E
e| -----------------|---------------------|-2/4-2-0--|-2/4-2-0--|-------------|--------------|
B| -----------------|-----5-5-5-----5-5-5-|-0---0-0--|-0---0-0--|-------------|--------------|
G| -----------------|-4-6-------4-6-------|-2/4-2-1~-|-2/4-2-1~-|-6-6---6-7-6-|-6-6----6-7-6-|
D| -----------------|---------------------|----------|----------|-----7-------|------7-------|
A| -6-6-6-----6-6-6-|---------------------|----------|----------|-------------|--------------|
E| -------6-8-------|---------------------|----------|----------|-------------|--------------|
 E                                         [Fading]
 -2/4-2-0--|-2/4-2-0--|-----------------|-----------------|
 -0---0-0--|-0---0-0--|-----4---4---4---|-----2---2---2---|
 -2/4-2-1~-|-2/4-2-1~-|-3/4---4---4---4-|-1/2---2---2---2-|
 ----------|----------|-----------------|-----------------|
 ----------|----------|-----------------|-----------------|
 ----------|----------|-----------------|-----------------|

VARIANT 2:

[Intro]
 E        
e| -----------------|---------------------|
B| -----------------|-----5-5-5-----5-5-5-|
G| -----------------|-4-6-------4-6-------|
D| -----------------|---------------------|
A| -7-7-7-----7-7-7-|---------------------|
E| -------7-9-------|---------------------|

[Verse 1]
E                   Abm            Dbm                Abm
So long boy you can take my place, got my papers I've got my pay 
   Dbm                       F#m           B      A Abm B
So pack my bags, and I'll be on my way, to yellow river 

E                    Abm
Put my guns down the war is won, 
Dbm                    Abm
fill my glass high the time has come 
    Dbm               F#m                B      A Abm B
I'm going back to the place that I love, yellow river 

[Chorus]
E                             Abm            B
Yellow river, yellow river is in my mind and in my eyes 
E                             Abm                  B
Yellow river, yellow river is in my blood it's the place I love 

Dbm                         B
Got no time for explanation got no time to lose, 
  F#m 
tomorrow night you'll find me 
         B                      Dbm         A B
sleeping underneath the moon at yellow river 

[Verse 2]
E                      Abm         Dbm                  Abm
Cannon fire lingers in my mind, I'm so glad that I'm still alive 
    Dbm                F#m                    B      A B A
And I've been gone for such a long time, from yellow river 

E              Abm               Dbm                 Abm
I remember the nights were cool, I can still see the water pool 
    Dbm            F#m                    B      A Abm B
And I remember the girl that I knew, from yellow river 

[Chorus]
E                             Abm            B
Yellow river, yellow river is in my mind and in my eyes 
E                             Abm                  B
Yellow river, yellow river is in my blood it's the place I love 

Dbm                         B
Got no time for explanation got no time to lose, 
  F#m 
tomorrow night you'll find me 
         B                      Dbm         A B
sleeping underneath the moon at yellow river 

E                             Abm            B
Yellow river, yellow river is in my mind and in my eyes 
E                             Abm                  B
Yellow river, yellow river is in my blood it's the place I love 

[Outro]
 E        
e| -----------------|---------------------|-2/4-2-0--|-2/4-2-0--|-------------|--------------|
B| -----------------|-----5-5-5-----5-5-5-|-0---0-0--|-0---0-0--|-------------|--------------|
G| -----------------|-4-6-------4-6-------|-2/4-2-1~-|-2/4-2-1~-|-6-6---6-7-6-|-6-6----6-7-6-|
D| -----------------|---------------------|----------|----------|-----7-------|------7-------|
A| -7-7-7-----7-7-7-|---------------------|----------|----------|-------------|--------------|
E| -------7-9-------|---------------------|----------|----------|-------------|--------------|
 E                                         [Fading]
e| -2/4-2-0--|-2/4-2-0--|-----------------|-----------------|
B| -0---0-0--|-0---0-0--|-----4---4---4---|-----2---2---2---|
G| -2/4-2-1~-|-2/4-2-1~-|-3/4---4---4---4-|-1/2---2---2---2-|
D| ----------|----------|-----------------|-----------------|
A| ----------|----------|-----------------|-----------------|
E| ----------|----------|-----------------|-----------------|

            
            
Suggest correction
Creating personal tab
Creating personal tab
You can edit any tab online and save it as your Personal.

You can edit, replace or remove any tab part or add personal notes – all changes will be seen only by you.

Personal tabs can be accessed anytime from any device, even offline.
Learn more »
comments
print report bad tab
guest
You may want to rate the tab now too:
select rating
Wanna post a correction for this tab? Suggest correction