Oops, an error
Loading. Please wait.

Saturday tab

40 views 3 this week
no commentswrite comment
1 2 3 4 5
3 more votes to show rating
add to favorites
×
Save as Personal and add changes to this tab that will be seen only by you. Learn more ›
×
You can save this tab as Personal to edit and correct it or add notes. All changes will be seen only by you. Learn more »
launch autoscroll
font size
0
reset
how to read this tab
guitar tuner
edit
Autoscroll
slow
fast
+/-
esc
set tempo
stop
This is the very first song I try tabbing by ear, since I couldn't find any tab for it online.
I also watched a couple live videos of the band playing it and from what I could see, most of it is fairly
accurate (guitar 1 at least). The only thing I didn't tab is the lead guitar of the part that comes right 
before the outro, but everything else is here.
If you have any suggestions or notice any mistake please leave a comment :)



Guitar 1

(Starts playing at 1:26)

                               x2
e|-------------------------------|
B|-------------------------------|
G|7----6--------------7----6---7-|
D|---------7/9\7-----------------|
A|-------------------------------|
D|-------------------------------|

e|----------------------------------------------------|
B|----------------------------------------------------|
G|7-----6---------------------7----6---7----/9----/11-|
D|----------7/9\7----5---4----------------------------|
A|----------------------------------------------------|
D|----------------------------------------------------|

                              
e|----------------------------------------------------|
B|----------------------------------------------------|
G|7-----6---------------------7----6---7--------------|
D|----------7/9\7----5---4----------------------------|
A|----------------------------------------------------|
D|----------------------------------------------------|

                                                                     x4
e|---------------------------------------------------------------------|
B|----------10-------------10-------------10-------------10/12\10------|
G|7/6--6---------7/6--6---------7/6--6---------7/6--6------------------|
D|---------------------------------------------------------------------|
A|---------------------------------------------------------------------|
D|---------------------------------------------------------------------|

e|---------------------------------|
B|-----------------3-3-3-3-3-3-3-3-|
G|-4-4-4-4-4-4-4-4-2-2-2-2-2-2-2-2-|
D|-4-4-4-4-4-4-4-4-2-2-2-2-2-2-2-2-|
A|-2-2-2-2-2-2-2-2-----------------|
D|---------------------------------|

                                                                     x4
e|---------------------------------------------------------------------|
B|----------10-------------10-------------10-------------10/12\10------|
G|7/6--6---------7/6--6---------7/6--6---------7/6--6------------------|
D|---------------------------------------------------------------------|
A|---------------------------------------------------------------------|
D|---------------------------------------------------------------------|

e|-----------------------------------------------------------------|
B|-----------------------------------------------------------------|
G|---------------------------------7-7-7-7-7-7-7-7-7-7-7-7-7-7-7-7-|
D|-7-7-7-7-7-7-7-7-7-7-7-7-7-7-7-7---------------------------------|
A|-----------------------------------------------------------------|
D|-----------------------------------------------------------------|

e|-----------------------------------------------------|
B|-----------------------------------------------------|
G|-----------------------------------------------------|
D|-7-7-7-7-7-7-7-7-5-5-5-5-5-5-5-5-4/55-4/55-4/55-4/55-|
A|-----------------------------------------------------|
D|-----------------------------------------------------|

e|-----------------------------------------------------------------|
B|---------------------------------------------8-8-8-8-8-8-7-7-7-7-|
G|---------------------------------7-7-7-7-7-7---------------------|
D|-7-7-7-7-7-7-7-7-7-7-7-7-7-7-7-7---------------------------------|
A|-----------------------------------------------------------------|
D|-----------------------------------------------------------------|

e|-----------------------------------------------------|
B|-----------------------------------------------------|
G|-----------------------------------------------------|
D|-7-7-7-7-7-7-7-7-5-5-5-5-5-5-5-5-4/55-4/55-4/55-4/55-|
A|-----------------------------------------------------|
D|-----------------------------------------------------|

                                                                x2
e|----------------------------------------------------------------|
B|----------------------------------------------------------------|
G|----------------------------------------------------------------|
D|----------------------------------------------------------------|
A|-5----7----9----10--------5----7----9----10-10-10-10-10-10-10-10|
D|----------------------------------------------------------------|


e|-----------------------------------------------------------------|
B|-----------------------------------------------------------------|
G|---------------------------------7-7-7-7-7-7-7-7-7-7-7-7-7-7-7-7-|
D|-7-7-7-7-7-7-7-7-7-7-7-7-7-7-7-7---------------------------------|
A|-----------------------------------------------------------------|
D|-----------------------------------------------------------------|

e|-----------------------------------------------------|
B|-----------------------------------------------------|
G|-----------------------------------------------------|
D|-7-7-7-7-7-7-7-7-5-5-5-5-5-5-5-5-4/55-4/55-4/55-4/55-|
A|-----------------------------------------------------|
D|-----------------------------------------------------|

e|-----------------------------------------------------------------|
B|---------------------------------------------8-8-8-8-8-8-7-7-7-7-|
G|---------------------------------7-7-7-7-7-7---------------------|
D|-7-7-7-7-7-7-7-7-7-7-7-7-7-7-7-7---------------------------------|
A|-----------------------------------------------------------------|
D|-----------------------------------------------------------------|

e|-----------------------------------------------------|
B|-----------------------------------------------------|
G|-----------------------------------------------------|
D|-7-7-7-7-7-7-7-7-5-5-5-5-5-5-5-5-4/55-4/55-4/55-4/55-|
A|-----------------------------------------------------|
D|-----------------------------------------------------|

e|-------------------------------------------|
B|-------------------------------------------|
G|-------------------------------------------|
D|-10-10-10-10-10-10-10-11-11-11-11-11-11-11-|
A|-------------------------------------------|
D|-------------------------------------------|


[Outro]

e|-----------------------------------------------------------------------|
B|-----------------5\--------3-----------------------5\-------3----------|
G|4\2---2--2--2-2-------2------2----4\2---2--2--2-2-------2------2-------|
D|-----------------------------------------------------------------------|
A|-----------------------------------------------------------------------|
D|-----------------------------------------------------------------------|

e|----------------------------------5---5-----5---5--5-5------------5-----5---5-5-|
B|-----------------5/-------3---------4---4-4---4----------5\3--3-3---3-3---3-----|
G|4\2---2--2--2-2-------2------2-2------------------------------------------------|
D|--------------------------------------------------------------------------------|
A|--------------------------------------------------------------------------------|
D|--------------------------------------------------------------------------------|

                 x8
e|-------------5---|
B|---------3p2---3-|
G|4\2--2-2---------|
D|-----------------|
A|-----------------|
D|-----------------|


______________________________________________________________________________________________________________


Guitar 2

[Intro]
         (Many times)               
e|------------------|
B|------------------|
G|------------------|
D|------4--4-4-4\2-0|
A|4-0-5-------------|
D|------------------|


                                   x8
e|--------------------0--------------|
B|--------------------3--------------|
G|--------------------2--------------|
D|------4--4-4-4\2-0--0--------------|
A|4-0-5------------------------------|
D|-----------------------------------|


                                                                     x4
e|---------------------------------------------------------------------|
B|----------10-------------10-------------10-------------10/12\10------|
G|7/6--6---------7/6--6---------7/6--6---------7/6--6------------------|
D|---------------------------------------------------------------------|
A|---------------------------------------------------------------------|
D|---------------------------------------------------------------------|

e|-----------------------------|
B|-----------------------------|
G|-7------6/7--7-7-7-7-7-7-7-7-|
D|-----------------------------|
A|-----------------------------|
D|-----------------------------|

                                                                     x4
e|---------------------------------------------------------------------|
B|----------10-------------10-------------10-------------10/12\10------|
G|7/6--6---------7/6--6---------7/6--6---------7/6--6------------------|
D|---------------------------------------------------------------------|
A|---------------------------------------------------------------------|
D|---------------------------------------------------------------------|


                                                                                 x4
e|---------------------------------------------------------------------------------|
B|---------------------------------------------------------------------------------|
G|-11-11-11-11-11-11-11-11-11-11-11-11-11-11-11-11-7-7-7-7-7-7-7-7-7-7-7-7-7-7-7-7-|
D|-9--9--9--9--9--9--9--9--9--9--9--9--9--9--9--9--5-5-5-5-5-5-5-5-4-4-4-4-5-5-5-5-|
A|-9--9--9--9--9--9--9--9--9--9--9--9--9--9--9--9--5-5-5-5-5-5-5-5-4-4-4-4-5-5-5-5-|
D|-9--9--9--9--9--9--9--9--9--9--9--9--9--9--9--9--5-5-5-5-5-5-5-5-4-4-4-4-5-5-5-5-|


                                                                x2
e|----------------------------------------------------------------|
B|----------------------------------------------------------------|
G|----------------------------------------------------------------|
D|----------------------------------------------------------------|
A|-5----7----9----10--------5----7----9----10-10-10-10-10-10-10-10|
D|----------------------------------------------------------------|


                                                                                 x4
e|---------------------------------------------------------------------------------|
B|---------------------------------------------------------------------------------|
G|-11-11-11-11-11-11-11-11-11-11-11-11-11-11-11-11-7-7-7-7-7-7-7-7-7-7-7-7-7-7-7-7-|
D|-9--9--9--9--9--9--9--9--9--9--9--9--9--9--9--9--5-5-5-5-5-5-5-5-4-4-4-4-5-5-5-5-|
A|-9--9--9--9--9--9--9--9--9--9--9--9--9--9--9--9--5-5-5-5-5-5-5-5-4-4-4-4-5-5-5-5-|
D|-9--9--9--9--9--9--9--9--9--9--9--9--9--9--9--9--5-5-5-5-5-5-5-5-4-4-4-4-5-5-5-5-|


                                                                                 
e|---------------------------------------------------------------------------------|
B|---------------------------------------------------------------------------------|
G|-8-8-8-8-8-8-8-8-8-8-8-8-8-8-8-8-8-8-8-8-8-8-8-8-8-8-8-8-8-8-8-8-8-8-8-8-8-8-8-8-|
D|-6-6-6-6-6-6-6-6-6-6-6-6-6-6-6-6-6-6-6-6-6-6-6-6-6-6-6-6-6-6-6-6-6-6-6-6-6-6-6-6-|
A|-6-6-6-6-6-6-6-6-6-6-6-6-6-6-6-6-6-6-6-6-6-6-6-6-6-6-6-6-6-6-6-6-6-6-6-6-6-6-6-6-|
D|-6-6-6-6-6-6-6-6-6-6-6-6-6-6-6-6-6-6-6-6-6-6-6-6-6-6-6-6-6-6-6-6-6-6-6-6-6-6-6-6-|


                                                                 x4
e|-----------------------------------------------------------------|
B|-----------------------------------------------------------------|
G|-7-7-7-7-7-7-7-7-7-7-7-7-7-7-7-7-7-7-7-7-7-7-7-7-7-7-7-7-7-7-7-7-|
D|-7-7-7-7-7-7-7-7-7-7-7-7-7-7-7-7-5-5-5-5-5-5-5-5-4-4-4-4-5-5-5-5-|
A|-5-5-5-5-5-5-5-5-5-5-5-5-5-5-5-5-5-5-5-5-5-5-5-5-4-4-4-4-5-5-5-5-|
D|---------------------------------5-5-5-5-5-5-5-5-4-4-4-4-5-5-5-5-|

                                                                                 
e|---------------------------------------------------------------------------------|
B|---------------------------------------------------------------------------------|
G|-8-8-8-8-8-8-8-8-8-8-8-8-8-8-8-8-8-8-8-8-8-8-8-8-8-8-8-8-8-8-8-8-8-8-8-8-8-8-8-8-|
D|-6-6-6-6-6-6-6-6-6-6-6-6-6-6-6-6-6-6-6-6-6-6-6-6-6-6-6-6-6-6-6-6-6-6-6-6-6-6-6-6-|
A|-6-6-6-6-6-6-6-6-6-6-6-6-6-6-6-6-6-6-6-6-6-6-6-6-6-6-6-6-6-6-6-6-6-6-6-6-6-6-6-6-|
D|-6-6-6-6-6-6-6-6-6-6-6-6-6-6-6-6-6-6-6-6-6-6-6-6-6-6-6-6-6-6-6-6-6-6-6-6-6-6-6-6-|


[Outro]

e|----------------------------------------------------------------|
B|----------------------------------------------------------------|
G|----------------------------------------------------------------|
D|0-0-0-0-0-0-0-0-2-2-2-2-2-2-2-2-4-4-4-4-4-4-4-4-5-5-5-5-5-5-5-5-|
A|----------------------------------------------------------------|
D|----------------------------------------------------------------|

e|----------------------------------------------------------------|
B|----------------------------------------------------------------|
G|----------------------------------------------------------------|
D|0-0-0-0-0-0-0-0-2-2-2-2-2-2-2-2-4-4-4-4-4-4-4-4-5-5-5-5-7-7-7-7-|
A|----------------------------------------------------------------|
D|----------------------------------------------------------------|

           x8
e|----------|
B|----------|
G|--------7-|
D|5\4-------|
A|----------|
D|----------|




************************************

| p   Pull-off
| /   Slide up
| \   Slide down

************************************
Suggest correction
Creating personal tab
Creating personal tab
You can edit any tab online and save it as your Personal.

You can edit, replace or remove any tab part or add personal notes – all changes will be seen only by you.

Personal tabs can be accessed anytime from any device, even offline.
Learn more »
Give kudos to tab author, rate the tab!
1 2 3 4 5
comments
print report bad tab
guest
You may want to rate the tab now too:
select rating
Wanna post a correction for this tab? Suggest correction