Oops, an error
Loading. Please wait.

Contigo En La Distancia tab

359 views 3 this week
no commentswrite comment
1 2 3 4 5
3 more votes to show rating
add to favorites
×
Save as Personal and add changes to this tab that will be seen only by you. Learn more ›
×
You can save this tab as Personal to edit and correct it or add notes. All changes will be seen only by you. Learn more »
launch autoscroll
font size
0
reset
how to read this tab
guitar tuner
edit
Autoscroll
slow
fast
+/-
esc
set tempo
stop
Esta canción la saque de puro oído, y pienso que esta 100% 
correcta. Pero eso es lo que yo pienso así que si alguien 
tiene algún comentario o sugerencia favor de escribirme a 
micrule2002@
Para que la puedan tocar más fácil les sugiero que la 
escuchen para tomar los tiempos. Y se la dedico a una amiga 
muy especial a la que quiero mucho y me pidio que la sacara 
por que la va a cantar. Eh Karla!!
INTRO

E -----------x-----------------------------------------4--3h4--3--3--
B ----3/6----6----6-------------------3--4/6--6-------------------3--
G -----------7----7-------------3--5----------7-----7-------------4--
D -----------7--7-------3--5---------------------7-------------------
A -----------x-------3------------------------5-------------------5--
E -----------6-----6----------------------------------------------3-

E ------------------------3-----------6--3--------------------------
B ---6--6--4--4--3-----3--4--------4--------3h4
Suggest correction
Creating personal tab
Creating personal tab
You can edit any tab online and save it as your Personal.

You can edit, replace or remove any tab part or add personal notes – all changes will be seen only by you.

Personal tabs can be accessed anytime from any device, even offline.
Learn more »
Give kudos to tab author, rate the tab!
1 2 3 4 5
comments
print report bad tab
guest
Wanna post a correction for this tab? Suggest correction