Oops, an error
Loading. Please wait.

Fighter bass

version 1
version 1

Whole song

Interactive

5,583 views 3 this week
3 commentsread comments
1 2 3 4 5
x 6
add to favorites
×
Save as Personal and add changes to this tab that will be seen only by you. Learn more ›
×
You can save this tab as Personal to edit and correct it or add notes. All changes will be seen only by you. Learn more »
launch autoscroll
font size
0
reset
guitar tuner
backing track
0:00
0:00
edit
Autoscroll
slow
fast
+/-
esc
set tempo
stop
Author
Difficulty
Artist : Christina Aguilera
Album  : Stripped
Song   : Fighter
Tab    : Fighter(Bass)


not a big fan but this is her best song ever 

comment & Enjoy


Verse 

G|----------0--------------------|
D|--2-2-2--2--------0-0-0--3-2---|X4 Repeat it all four 
A|-------------------------------|during times each Verse
E|-------------------------------|


Pre- Chorus : 


G|-----------------------0--0-----0--0----------------------------------------------|
D|----------------------------2--------2------------------0--0----------------------|
A|--0--0-0--0-0--0-0--0---------------------0--0-0--2--3-3-----2--2-2----3---3-0-2--|
E|----------------------------------------------------------------------------------|



Chorus : 


G|----------------------------------------------|
D|----------------------------------------0-----|  X2  repeat the whole part 
A|--------------0---2--3--3-2----0--------------|  Twice during each Chorus 
E|-0--0-2---3--3-------------------3-2-0--------|


Comment , Rate & Enjoy 

this is the most accurate version of it 
Suggest correction
Creating personal tab
Creating personal tab
You can edit any tab online and save it as your Personal.

You can edit, replace or remove any tab part or add personal notes – all changes will be seen only by you.

Personal tabs can be accessed anytime from any device, even offline.
Learn more »
comments
print report bad tab
3 comments total.
+1 reply
$e><yB@Ck 10 Jan 26, 2008 02:20 AM

Always the best

0 reply
joeschmoe717 345 Jul 23, 2014 04:32 PM

Clearly wrong.

0 reply
joeschmoe717 345 Jul 23, 2014 04:32 PM

Clearly wrong.

guest
You may want to rate the tab now too:
select rating
Wanna post a correction for this tab? Suggest correction