Oops, an error
Loading. Please wait.

Save Me From Myself Tab

version 1
version 1

Whole song

Interactive

14,662 views 6 this week
no commentswrite comment
1 2 3 4 5
please rate
add to favorites
launch autoscroll
font size
0
reset
how to read this tab
guitar tuner
Tab Pro tools
  • play this tab
  • loop segment
  • change instrument
  • show fretboard
  • metronome
×
Best way to learn
"Save Me From Myself"
Autoscroll
slow
fast
+/-
esc
set tempo
stop
hope it helps you!
its my first tab, so dont kill me

SAVE ME FROM MYSELF
Christina Aguilera

----------------------------------------------------------------------

e|----------x----x-------x--x------------------------------| 
B|----------5----4-------5--4------------------------------| 
G|----------6----4-------6--4------------------------------| 
D|----------6----6-------6--6------------------------------| 
A|----------4----6-------4--6------------------------------| 
E|----------x----4-------x--4------------------------------|
            
            C#m G#m      C#m G#m
It's not so easy, loving me

----------------------------------------------------------------------

e|-x----------------------------0--------------------x-----| 
B|-2----------------------------2--------------------4-----| 
G|-2----------------------------2--------------------5-----| 
D|-4----------------------------4--------------------6-----| 
A|-4----------------------------4--------------------6-----| 
E|-2----------------------------2--------------------4-----|

   F#m                          F#m7                 G#
It gets so complicated, all the things you've got to be

----------------------------------------------------------------------

e|-----------x-------x----------------x----x---------------| 
B|-----------5-------4----------------5----4---------------| 
G|-----------6-------4----------------6----4---------------| 
D|-----------6-------6----------------6----6---------------| 
A|-----------4-------6----------------4----6---------------| 
E|-----------x-------4----------------x----4---------------|

             C#m     G#m              C#m  G#m
Everything's changing, but you're the truth

----------------------------------------------------------------------

e|--x---------------------------------0---------------x----| 
B|--2---------------------------------2---------------4----| 
G|--2---------------------------------2---------------5----| 
D|--4---------------------------------4---------------6----| 
A|--4---------------------------------4---------------6----| 
E|--2---------------------------------2---------------4----|

    F#m                               F#m7            G#
I'm amazed at all your patience, everything I put you through

----------------------------------------------------------------------








e|-----x----------x----------------------------------------| 
B|-----5----------4----------------------------------------| 
G|-----6----------5----------------------------------------| 
D|-----7----------6----------------------------------------| 
A|-----7----------6----------------------------------------| 
E|-----5----------4----------------------------------------|

	A         G#
	When I'm about to fall, some-

----------------------------------------------------------------------

e|------x-------------------------------x------------------| 
B|------5-------------------------------7------------------| 
G|------6-------------------------------7------------------| 
D|------6-------------------------------6------------------| 
A|------4-------------------------------7------------------| 
E|------x-------------------------------x------------------|

	C#m                             E9
	how you're always waiting, your open arms to catch me

----------------------------------------------------------------------

e|-----x-------------x--------------x------------x---------| 
B|-----5-------------4--------------5------------7---------| 
G|-----6-------------5--------------6------------7---------| 
D|-----7-------------6--------------6------------6---------| 
A|-----7-------------6--------------4------------7---------| 
E|-----5-------------4--------------x------------x---------|

	A            G#             C#m          E9
	You're gonna save me from myself, from myself, yeah

----------------------------------------------------------------------

e|x-------------x-------------x---x---x---x----x---x----x---x-| 
B|5-------------4-------------5---4---5---4----5---4----5---4-| 
G|6-------------5-------------6---4---6---4----6---4----6---4-| 
D|7-------------6-------------6---6---6---6----6---6----6---6-| 
A|7-------------6-------------4---6---4---6----4---6----4---6-| 
E|5-------------4-------------x---4---x---4----x---4----x---4-|

  A            G#             C#m G#m C#m G#m  C#m G#m  C#m G#m
  You're gonna save me from myself

----------------------------------------------------------------------

e|---------x-----x---------x-----x-------------------------| 
B|---------5-----4---------5-----4-------------------------| 
G|---------6-----4---------6-----4-------------------------| 
D|---------6-----6---------6-----6-------------------------| 
A|---------4-----6---------4-----6-------------------------| 
E|---------x-----4---------x-----4-------------------------|

           C#m   G#m       C#m   G#m
My love is tainted by your touch

----------------------------------------------------------------------


e|--------x-----------------------------------0--------------x-| 
B|--------2-----------------------------------2--------------4-| 
G|--------2-----------------------------------2--------------5-| 
D|--------4-----------------------------------4--------------6-| 
A|--------4-----------------------------------4--------------6-| 
E|--------2-----------------------------------2--------------4-|

          F#m                                 F#m7           G#
Well some guys have shown me aces, but you've got that royal flush

----------------------------------------------------------------------

e|----------x----x-------x---x----------------------------| 
B|----------5----4-------5---4----------------------------| 
G|----------6----4-------6---4----------------------------| 
D|----------6----6-------6---6----------------------------| 
A|----------4----6-------4---6----------------------------| 
E|----------x----4-------x---4----------------------------|

            C#m  G#m     C#m G#m
I know it's crazy, every day

----------------------------------------------------------------------

e|---x------------------------------0----------x----------| 
B|---2------------------------------2----------4----------| 
G|---2------------------------------2----------5----------| 
D|---4------------------------------4----------6----------| 
A|---4------------------------------4----------6----------| 
E|---2------------------------------2----------4----------|

     F#m                            F#m7       G#
Well tomorrow may be shaky, but you never turn away

----------------------------------------------------------------------

e|------x------------x------------------------------------| 
B|------5------------4------------------------------------| 
G|------6------------5------------------------------------| 
D|------7------------6------------------------------------| 
A|------7------------6------------------------------------| 
E|------5------------4------------------------------------|

	A            G#
	Don't ask me why I'm crying

----------------------------------------------------------------------

e|-----x---------------------------------x----------------| 
B|-----5---------------------------------7----------------| 
G|-----6---------------------------------7----------------| 
D|-----6---------------------------------6----------------| 
A|-----4---------------------------------7----------------| 
E|-----x---------------------------------x----------------|

       C#m                               E9
'Cause when I start to crumble, you know how to keep me smiling

----------------------------------------------------------------------

e|-----x-----------x------------x------------x------------| 
B|-----5-----------4------------5------------7------------| 
G|-----6-----------5------------6------------7------------| 
D|-----7-----------6------------6------------6------------| 
A|-----7-----------6------------4------------7------------| 
E|-----5-----------4------------x------------x------------|

	A          G#           C#m          E9
	You always save me from myself, from myself, myself

----------------------------------------------------------------------

e|------x------------x-----------x------------------------| 
B|------5------------4-----------5------------------------| 
G|------6------------5-----------6------------------------| 
D|------7------------6-----------6------------------------| 
A|------7------------6-----------4------------------------| 
E|------5------------4-----------x------------------------|

	A            G#           C#m
	You're gonna save me from myself, I know it's hard, it's hard

----------------------------------------------------------------------

e|------x-------------------------------------------------| 
B|------5-------------------------------------------------| 
G|------6-------------------------------------------------| 
D|------6-------------------------------------------------| 
A|------4-------------------------------------------------| 
E|------x-------------------------------------------------|

	C#m
	But you've broken all my walls, you've been my strength, so strong

----------------------------------------------------------------------

e|------x------------x------------------------------------| 
B|------5------------4------------------------------------| 
G|------6------------5------------------------------------| 
D|------7------------6------------------------------------| 
A|------7------------6------------------------------------| 
E|------5------------4------------------------------------|

	A            G#
	Don't ask me why I love you

----------------------------------------------------------------------

e|---x--------------------------x-------------------------| 
B|---5--------------------------7-------------------------| 
G|---6--------------------------7-------------------------| 
D|---6--------------------------6-------------------------| 
A|---4--------------------------7-------------------------| 
E|---x--------------------------x-------------------------|

     C#m                        E9
It's obvious your tenderness is what I need to make me

----------------------------------------------------------------------
e|------x--------x--------x----------x--------------------| 
B|------5--------4--------5----------7--------------------| 
G|------6--------5--------6----------7--------------------| 
D|------7--------6--------6----------6--------------------| 
A|------7--------6--------4----------7--------------------| 
E|------5--------4--------x----------x--------------------|

	A        G#       C#m        E9
	A better woman to myself, to myself, myself

----------------------------------------------------------------------

e|------x------------x-----------x------------------------| 
B|------5------------4-----------5------------------------| 
G|------6------------5-----------6------------------------| 
D|------7------------6-----------6------------------------| 
A|------7------------6-----------4------------------------| 
E|------5------------4-----------x------------------------|

	A            G#             C#m
	You're gonna save me from myself
comments
We did not receive enough feedback on this tab! Please rate:
print report bad tab
1 2 3 4 5
I want to post or [tab]
guest
You may want to rate the tab now too:
select rating
Please do not post tabs as comments. Select "correction" instead!