Oops, an error
Loading. Please wait.

You Lost Me tab

version 1
version 1

Whole song

Interactive

538 views 3 this week
no commentswrite comment
1 2 3 4 5
1 last vote to show rating
add to favorites
×
Save as Personal and add changes to this tab that will be seen only by you. Learn more ›
×
You can save this tab as Personal to edit and correct it or add notes. All changes will be seen only by you. Learn more »
launch autoscroll
font size
0
reset
how to read this tab
guitar tuner
edit
Autoscroll
slow
fast
+/-
esc
set tempo
stop
Author
Difficulty
-------------------------------------------------------------------------------
                        YOU LOST ME - Christina Aguilera
-------------------------------------------------------------------------------

Tabbed by: TukkerxD
Tuning: standard

capo can be placed on 1th' fret, but not nessecary.

The difficult thing is that the rhythm is not 4/4 but 6/8
But if you practise a lot and play a long with the song you will get used to it.

At about the middle of the song many more sounds/instruments come in, if you like some variation with more 
sound at that part, after the bridge part there is another tab for that.


INTRO

chords.
Am x02210

e|----------------------------------------|
B|------------1-----------------1---------|
G|---------2--------2--------2--------2---|
D|------2--------2--------2--------2------|
A|---0-----------------0------------------|
E|----------------------------------------|


VERSE

chords.
Am x02210
Em 022000
F  133211
C  x32010
E  022100

e|----------------------------------------------------------------------------|
B|------------1-----------------1-----------------0-----------------0---------|
G|---------2--------2--------2--------2---------------------------------------|
D|------2--------2--------2--------2-----------2--------2--------2--------2---|
A|---0-----------------0--------------------2--------2--------2--------2------|
E|---------------------------------------0-----------------0------------------|

e|----------------------------------------------------------------------------|
B|------------1-----------------1-----------------1-----------------0---------|
G|---------2--------2--------2--------2--------0--------0--------1--------1---|
D|------3--------3--------3--------3--------2--------2--------2--------2------|
A|---------------------------------------3------------------------------------|
E|---1-----------------1-----------------------------------0------------------|

e|----------------------------------------------------------------------------|
B|------------1-----------------1-----------------0-----------------0---------|
G|---------2--------2--------2--------2---------------------------------------|
D|------2--------2--------2--------2-----------2--------2--------2--------2---|
A|---0-----------------0--------------------2--------2--------2--------2------|
E|---------------------------------------0-----------------0------------------|

e|----------------------------------------------------------------------------|
B|------------1-----------------1-----------------1-----------------1---------|
G|---------2--------2--------2--------2--------0--------0--------0--------0---|
D|------3--------3--------3--------3--------2--------2--------2--------2------|
A|---------------------------------------3-----------------3------------------|
E|---1-----------------1------------------------------------------------------|


PRE-CHORUS
this part I could not figure out, but I play it like this and sounds pretty good to me.

chords.
C  x32010
G  320033
E  022100
F  133211

e|------------3-----------------3-----------------3-----------------3---------|
B|---------1--------1--------1--------1--------3--------3--------3--------3---|
G|------0--------0--------0--------0--------0--------0--------0--------0------|
D|---2-----------------2-----------------0-----------------0------------------|
A|----------------------------------------------------------------------------|
E|----------------------------------------------------------------------------|

e|------------0-----------------0-----------------1-----------------1---------|
B|---------0--------0--------0--------0--------1--------1--------1--------x---|
G|------1--------1--------1--------1--------2--------2--------2--------x------|
D|---2-----------------2-----------------3-----------------3------------------|
A|----------------------------------------------------------------------------|
E|----------------------------------------------------------------------------|


CHORUS

chords.
C  x32010
E  022100
F  133211
Fm 133111

e|----------------------------------------------------------------------------|
B|------------1-----------------0-----------------1-----------------1---------|
G|---------0--------0--------1--------1--------2--------2--------1--------1---|
D|------2--------2--------2--------2--------3--------3--------3--------3------|
A|---3------------------------------------------------------------------------|
E|---------------------0-----------------1-----------------1------------------|

e|----------------------------------------------------------------------------|
B|------------1-----------------0-----------------1-----------------1---------|
G|---------0--------0--------1--------1--------2--------2--------1--------1---|
D|------2--------2--------2--------2--------3--------3--------3--------3------|
A|---3------------------------------------------------------------------------|
E|---------------------0-----------------1-----------------1------------------|

e|----------------------------------------------------------------------------|
B|------------1-----------------0-----------------1-----------------1---------|
G|---------0--------0--------1--------1--------2--------2--------1--------1---|
D|------2--------2--------2--------2--------3--------3--------3--------3------|
A|---3------------------------------------------------------------------------|
E|---------------------0-----------------1-----------------1------------------|

e|----------------------------------------------------------------------------|
B|------------1-----------------1-----------------1-----------------1---------|
G|---------2--------2--------1--------1--------0--------0--------0--------0---|
D|------3--------3--------3--------3--------2--------2--------2--------2------|
A|---------------------------------------3-----------------3------------------|
E|---1-----------------1------------------------------------------------------|

Play the verse, pre-chorus and chorus again, but with a little twist at the end of the chorus. same chords.


CHORUS #2

e|----------------------------------------------------------------------------|
B|------------1-----------------0-----------------1-----------------1---------|
G|---------0--------0--------1--------1--------2--------2--------1--------1---|
D|------2--------2--------2--------2--------3--------3--------3--------3------|
A|---3------------------------------------------------------------------------|
E|---------------------0-----------------1-----------------1------------------|

e|----------------------------------------------------------------------------|
B|------------1-----------------0-----------------1-----------------1---------|
G|---------0--------0--------1--------1--------2--------2--------1--------1---|
D|------2--------2--------2--------2--------3--------3--------3--------3------|
A|---3------------------------------------------------------------------------|
E|---------------------0-----------------1-----------------1------------------|

e|----------------------------------------------------------------------------|
B|------------1-----------------0-----------------1-----------------1---------|
G|---------0--------0--------1--------1--------2--------2--------1--------1---|
D|------2--------2--------2--------2--------3--------3--------3--------3------|
A|---3------------------------------------------------------------------------|
E|---------------------0-----------------1-----------------1------------------|

e|----------------------------------------|
B|------------1-----------------1---------|
G|---------2--------2--------1--------1---|
D|------3--------3--------3--------3------|
A|----------------------------------------|
E|---1-----------------1------------------|


BRIDGE
the bridge comes inmediatly after the chorus #2

chords.
Am x02210
D  xx0232
G  320033
E  022100
F  133211
C  x32010

e|------------------------------2-----------------------------------2---------|
B|------------1--------------3--------3-----------1--------------3--------3---|
G|---------2--------2-----2--------2-----------2--------2-----2--------2------|
D|------2--------2-----0--------------------2--------2-----0------------------|
A|---0-----------------------------------0------------------------------------|
E|----------------------------------------------------------------------------|

e|----------------------------------------------------------------------------|
B|------------3-----------------0-----------------1-----------------1---------|
G|---------0--------0--------1--------1--------2--------2--------0--------0---|
D|------0--------0--------2--------2--------3--------3--------2--------2------|
A|---------------------------------------------------------3------------------|
E|---3-----------------0-----------------1------------------------------------|

after the bridge is one more time the chorus.

Like I said in the beginning of the tab, after you have played the intro, verse, pre-chorus and chorus once,
more sound/instruments come in. Of course you cannot play every sound/instrument with one guitar, but I made
the following tabs for if you want some more sound and variation for the second time of playing the verse, 
pre-chrous and chorus, the third time you play the chrotus and even for the bridge.

It is not that hard, if you can switch through the chords fast.
I like to play it this way, of course it is up to you what you like best.
Every part has the same chords as the tabs above.


VERSE *

e|------------x-----------------x-----------------x-----------------x---------|
B|---1--------x-----1--1--------x-----1--0--------x-----0--0--------x-----0---|
G|---2--------x-----2--2--------x-----2-----------x-----------------x---------|
D|---2--------x-----2--2--------x-----2--2--------x-----2--2--------x-----2---|
A|---0--------x-----0--0--------x-----0--2--------x-----2--2--------x-----2---|
E|------------x-----------------x--------0--------x-----0--0--------x-----0---|

e|------------x-----------------x-----------------x-----------------x---------|
B|---1--------x-----1--1--------x-----1--1--------x-----1--0--------x-----0---|
G|---2--------x-----2--2--------x-----2--0--------x-----0--1--------x-----1---|
D|---3--------x-----3--3--------x-----3--2--------x-----2--2--------x-----2---|
A|------------x-----------------x--------3--------x-----3-----------x---------|
E|---1--------x-----1--1--------x-----1-----------x--------0--------x-----0---|

e|------------x-----------------x-----------------x-----------------x---------|
B|---1--------x-----1--1--------x-----1--0--------x-----0--0--------x-----0---|
G|---2--------x-----2--2--------x-----2-----------x-----------------x---------|
D|---2--------x-----2--2--------x-----2--2--------x-----2--2--------x-----2---|
A|---0--------x-----0--0--------x-----0--2--------x-----2--2--------x-----2---|
E|------------x-----------------x--------0--------x-----0--0--------x-----0---|

e|------------x-----------------x-----------------x-----------------x---------|
B|---1--------x-----1--1--------x-----1--1--------x-----1--1--------x-----1---|
G|---2--------x-----2--2--------x-----2--0--------x-----0--0--------x-----0---|
D|---3--------x-----3--3--------x-----3--2--------x-----2--2--------x-----2---|
A|------------x-----------------x--------3--------x-----3--3--------x-----3---|
E|---1--------x-----1--1--------x-----1-----------x-----------------x---------|


PRE-CHORUS *

e|---3--------x-----3--3--------x-----3--3--------x-----3--3--------x-----3---|
B|---1--------x-----1--1--------x-----3--3--------x-----3--3--------x-----3---|
G|---0--------x-----0--0--------x-----0--0--------x-----0--0--------x-----0---|
D|---2--------x-----2--2--------x-----2--0--------x-----0--0--------x-----0---|
A|------------x-----------------x-----------------x-----------------x---------|
E|------------x-----------------x-----------------x-----------------x---------|

e|---0--------x-----0--0--------x-----0--1--------x-----1--1--------x-----1---|
B|---0--------x-----0--0--------x-----0--1--------x-----1--1--------x-----1---|
G|---1--------x-----1--1--------x-----1--2--------x-----2--2--------x-----2---|
D|---2--------x-----2--2--------x-----2--3--------x-----3--3--------x-----3---|
A|------------x-----------------x-----------------x-----------------x---------|
E|------------x-----------------x-----------------x-----------------x---------|


CHORUS #2 *

e|------------x-----------------x-----------------x-----------------x---------|
B|---1--------x-----1--0--------x-----0--1--------x-----1--1--------x-----1---|
G|---0--------x-----0--1--------x-----1--2--------x-----2--1--------x-----1---|
D|---2--------x-----2--2--------x-----2--3--------x-----3--3--------x-----3---|
A|---3--------x-----3-----------x-----------------x-----------------x---------|
E|------------x--------0--------x-----0--1--------x-----1--1--------x-----1---|

e|------------x-----------------x-----------------x-----------------x---------|
B|---1--------x-----1--0--------x-----0--1--------x-----1--1--------x-----1---|
G|---0--------x-----0--1--------x-----1--2--------x-----2--1--------x-----1---|
D|---2--------x-----2--2--------x-----2--3--------x-----3--3--------x-----3---|
A|---3--------x-----3-----------x-----------------x-----------------x---------|
E|------------x--------0--------x-----0--1--------x-----1--1--------x-----1---|

e|------------x-----------------x-----------------x-----------------x---------|
B|---1--------x-----1--0--------x-----0--1--------x-----1--1--------x-----1---|
G|---0--------x-----0--1--------x-----1--2--------x-----2--1--------x-----1---|
D|---2--------x-----2--2--------x-----2--3--------x-----3--3--------x-----3---|
A|---3--------x-----3-----------x-----------------x-----------------x---------|
E|------------x--------0--------x-----0--1--------x-----1--1--------x-----1---|

e|------------x-----------------x------------|
B|---1--------x--------1--------x------------|
G|---2--------x--------1--------x------------|
D|---3--------x--------3--------x------------|
A|------------x-----------------x------------|
E|---1--------x--------1--------x------------|


BRIDGE *

e|------------x-----------2-----x-----2-----------x--------2--------x-----2---|
B|---1--------x--------1--3-----x-----3--1--------x-----1--3--------x-----3---|
G|---2--------x--------2--2-----x-----2--2--------x-----2--2--------x-----2---|
D|---2--------x--------2--0-----x-----0--2--------x-----2--0--------x-----0---|
A|---0--------x--------0--------x--------0--------x-----0-----------x---------|
E|------------x-----------------x-----------------x-----------------x---------|

e|------------x-----------------x-----------------x-----------------x---------|
B|---3--------x--------3--0-----x-----0--1--------x-----1--1--------x-----1---|
G|---0--------x--------0--1-----x-----1--2--------x-----2--0--------x-----0---|
D|---0--------x--------0--2-----x-----2--3--------x-----3--2--------x-----2---|
A|------------x-----------------x-----------------x--------3--------x-----3---|
E|---3--------x--------3--0-----x-----0--1--------x-----1-----------x---------|


CHORUS #3 *
Strumming the chords instead of plucking them.
Strumming pattern doesn't really matter, i use this one mostly (6/8), U=up-strum, D=down-strum, X=miss-strum
D X D U D U    one time per chord.

C / E / F / Fm
C / E / F / Fm
C / E / F / Fm


OUTRO

e|------------x-----------------x-----------------------|
B|---1--------x-----------1-----x-----(1)-----------1---|
G|---2--------x-----------1-----x-----(0)--------0------|
D|---3--------x-----------3-----x-----(2)-----2---------|
A|------------x-----------------x-----(3)--3------------|
E|---1--------x-----------1-----x-----------------------|


Very good luck learning the song, it's awesome, hopefully I could help!



            
            
Suggest correction
Creating personal tab
Creating personal tab
You can edit any tab online and save it as your Personal.

You can edit, replace or remove any tab part or add personal notes – all changes will be seen only by you.

Personal tabs can be accessed anytime from any device, even offline.
Learn more »
Give kudos to tab author, rate the tab!
1 2 3 4 5
comments
print report bad tab
guest
You may want to rate the tab now too:
select rating
Wanna post a correction for this tab? Suggest correction