Oops, an error
Loading. Please wait.

Find Me Acoustic Chords

6,836 views 18 this week
no commentswrite comment
1 2 3 4 5
excellent!
x 8
add to favorites
launch autoscroll
font size
0
reset
transpose
0
reset
- display chords -
guitar tuner
Tab Pro tools
  • play this tab
  • loop segment
  • change instrument
  • show fretboard
  • metronome
Autoscroll
slow
fast
+/-
esc
set tempo
stop
Contributor
Difficulty
novice
Standard tuning Capo on the 1st Fret

Intro:
   Em               C                G                D
E|--------------------------------------------------------------|
B|-0-----0-----0----1-----1-----1----0-----0-----0----------3---|
G|---0-----0-----0----0-----0-----0----0-----0-----0--2---------|
D|-----2-----2----------2-----2----------0-----0--------4-0-----|
A|--------------------------------------------------------------|
E|--------------------------------------------------------------|

Em    C    G                         D
I... know... something's bound to change

    Em    C     G                   D
And I... know... I have been to blame

Em             C                    G                          D    
Washing away this era of madness won't come and spread no shame

Em                     C                       G                    D 
'Cause I've been waiting, watching, and praying for you to go insane


I've been...
Piano RIff: (fret number NOT relative to capo)
E---------------------------------------------------------------------|
B----------13---------------------------------------------------------|
G--13--15------13--12--13--10---10h12h13--12--10----------------------|
D-------------------------------------------------13---15------13-----|
A---------------------------------------------------------15------13--|
E---------------------------------------------------------------------|


Chorus:

C
Calling out,

G                       Em
Come on out and find me

                          D
I've been waiting my turn

C                 G                         Em
Pressure's on and now your heart is beating

                   D
To the sound of my name and I say,

C        G         Em        D
Find me

C        G         Em        D
Find me



Em               C                       G                       D 
Feeling the fire, burning the thought of, calling back your name

Em                      C      G                            D 
Maybe it's all different,      because I cease to play your game

Em x3    
Forget the footsteps

C  x3
Forward and take one, 

G x3                          D x3
back Pray that you're secure!


Hey!

Em x3
So now you're prying!

C x3
Open the binding,

G x3                        D
I'm what you're looking for!



Chorus:

C
Calling out,

G                      Em
Come on out and find me

                          D
I've been waiting my turn

C                 G                         Em
Pressure's on and now your heart is beating

                   D                Em
To the sound of my name and I say,

Bridge:

Em   D  C   Em
This civil smile

        Em            Em
It wont get you, anywhere

D  Em G D C  Em G
Anymore.............

D C  Em G D C
 ANYMORE!...

Em G D
Anymore...

Em x3
More...

C x3
More... 

G x3 D
More...Yeah Yeah.!



Chorus:

Em                C                         G
Pressure's on and now your heart is beating

                   D                Em
To the sound of my name and I say,


Em C  G  D
Find me...

Em C  G  D
Find me...

Piano RIff:
E---------------------------------------------------------------------|
B----------13---------------------------------------------------------|
G--13--15------13--12--13--10---10h12h13--12--10----------------------|
D-------------------------------------------------13---15------13-----|
A---------------------------------------------------------15------13--|
E---------------------------------------------------------------------|

End on Em
comments
print report bad tab
I want to post or [tab]
guest
You may want to rate the tab now too:
select rating
Please do not post tabs as comments. Select "correction" instead!