Oops, an error
Loading. Please wait.

Unforgivable Chords

version 3
version 3

Whole song

52 views 1 this week
no commentswrite comment
1 2 3 4 5
3 more votes to show rating
add to favorites
launch autoscroll
font size
0
reset
transpose
0
reset
simplify chords
display chords
guitar tuner
Autoscroll
slow
fast
+/-
esc
set tempo
stop
Help us to improve Ultimate-Guitar.com Take our survey!
×
Author
Difficulty
Tuning
novice
D# G# C# F# A# D#
If you want to play this in standard tuning you can put a capo on the 1st fret and transpose accordingly.
Play the chords the way they are listed down below cause UG might show some different version of it

[Chords]
    Cm   G#sus2    D#    A#sus4   G5
D#|-4------0-------0-------0--------------------------|
A#|-5------0-------0-------0--------------------------|
F#|-6------2-------1-------4--------------------------|
C#|-6------2-------2-------4------6-------------------|
G#|-4------0-------2-------2------6-------------------|
D#|--------x-------0-------x------4-------------------|



For the official version just play the first row of intro. If you want to do some kind of acoustic version
play both.

[Intro]

D#|---------------------------------------------------------------------------|
A#|-------5----5---------0----0---------0----0---------4----4-----------------|
F#|-----6----6---------2----2---------1----1---------4----4-------------------|
C#|---6--------------2--------------2--------------4--------------------------|
G#|-4--------------0--------------2--------------2----------------------------|
D#|---------------------------------------------------------------------------|
 

                                                let ring~~~~~~~~~
D#|---------------------------------------------------------------------------|
A#|-------5----5---------0----0---------0----0--------------------------------|
F#|-----6----6---------2----2---------1----1----------------------------------|
C#|---6--------------2--------------2-----------------------------------------|
G#|-4--------------0--------------2-------------2-----------------------------|
D#|---------------------------------------------------------------------------|


 Cm    G#sus2                  D#
  Ok, let's keep this simple
                       A#sus4                Cm
I do intend to live my life on the safe side
     G#sus2             D#         A#sus4
It's who I am and it's who you aren't
Cm       G#sus2                D#
  I can, I can see you clearer
                A#sus4              Cm
When you're not lying underneath it all
    G#sus2              D#   A#sus4
And I can see your complexion



      Cm                  G#sus2                       
And I know your heart the way you choose
    D#              A#sus4                 
You always want the best for you
        G#sus2                 
Now I'm standing here with cryin' eyes
  D#                        A#sus4  G#sus2
I still see through your disguise




      A#sus4          Cm
I never meant for you to choose
    D#               A#sus4 G#sus2
You shoulda' known better
                A#sus4          Cm
There's nothing left for you to lose
         D#                A#sus4         G#sus2
When you looked at me and said you had it all
                A#sus4          Cm          D#   A#sus4 G#sus2 
But what you did is not unforgivable (unforgivable)
           A#sus4           Cm         D#   A#sus4   G#sus2   G5
What you did is not unforgivable (unforgivable)




Cm       G#sus2                  D#
 I know things have been goin' on
    A#sus4                    Cm
You know you can't erase your sin
    G#sus2                  D#      A#sus4
And now you can't see your reflection
Cm        G#sus2                      D#
  I know that your heart is breaking
             A#sus4  Cm  G#sus2
But is it as torn as mi-ine
   D# A#sus4
As mi-ine (oh)




  Cm              G#sus2
And you've already made it known
    D#               A#sus4
How much you lie is what you've shown
G#sus2                     D#              A#sus4    G#sus2
Everything inside my head won't leave me alone




    A#sus4           Cm
I never meant for you to choose
    D#              A#sus4    G#sus2
You shoulda' known better
                A#sus4          Cm
There's nothing left for you to lose
         D#                A#sus4         G#sus2
When you looked at me and said you had it all
                A#sus4          Cm          D#   A#sus4     G#sus2 
But what you did is not unforgivable (unforgivable)
           A#sus4           Cm         D#   A#sus4     G#sus2    G5
What you did is not unforgivable (unforgivable)




G#sus2                         Cm
 And even though it's been so long
          A#sus4               G#sus2        C#m  A#sus4 
And now I know this is where I don't want to be
      G#sus2                Cm
And I know something's not right
                        A#sus4 A#   A#sus4    G#sus2   
And now I'm telling you get off of me  

The chords above are played like this:
             A#sus4  A#  A#sus4
              -7-----7---0----
              -7-----7---0----
              -9-----8---4----
              -9-----9---4----
              -9-----9---2----
              -7-----7---x----



    A#sus4          Cm           
I never meant for you to choose  
    D#              A#sus4  G#sus2
You shoulda' known better
                A#sus4          Cm
There's nothing left for you to lose
         D#                A#sus4         G#sus2
When you looked at me and said you had it all
                A#sus4          Cm          D#  A#sus4 G#sus2 
But what you did is not unforgivable (unforgivable)
           A#sus4           Cm         D#   A#sus4  G#sus2   G5
What you did is not unforgivable (unforgivable)



Cm  G#sus2          D#       A#sus4    
      Yeah yeah yeah ye--ah


You can also pick the chords at the end like this:
                           yeah, yeah, yeah       ye--ah
D#|---------------------------------------------------------------------------|
A#|-------5-------------2-----------------0-----------4-----------------------|
F#|-----6-------------2-----------------1-----------4-------------------------|
C#|---6-------------2-----------------2-----------4---------------------------|
G#|-4-------------0-----------------2-----------2-----------------------------|
D#|---------------------------------------------------------------------------|



Suggest correction
Give kudos to tab author, rate the tab!
1 2 3 4 5
comments
print report bad tab
guest
You may want to rate the tab now too:
select rating
Wanna post a correction for this tab? Suggest correction