Oops, an error
Loading. Please wait.

A Thousand Years Tab

version 1
version 1
89,662 views 150 this week
no commentswrite comment
1 2 3 4 5
excellent!
x 14
add to favorites
launch autoscroll
font size
0
reset
how to read this tab
guitar tuner
Autoscroll
slow
fast
+/-
esc
set tempo
stop
Help us to improve Ultimate-Guitar.com Take our survey!
×
Intro of Sungha :)

[Intro]
|------7------------7------------7---------5----------7------------7------------7------|
|------8------------8------------8--------------------8------------8------------8------|
|--------------------------------------------------------------------------------------|
|--------------------------------------------------------------------------------------|
|------9-----------------------------------9-------------------------------------------|
|-----------------------------------------------------0--------------------------------|

|------5--------8------------8------------8-------7-------- 7----------5----------3---2------|
|------7--------5------------5------------5-----------------8----8---- 3----------3-------3--|
|---------------------------------------------------------- 7--------- 2---------------------|
|------------------------------------------------------------------7---0---------------------|
|--------------------------------------------------------------------------------------------|
|---------------5----------------------------------------------------------------------------|
Suggest correction
comments
print report bad tab
guest
You may want to rate the tab now too:
select rating
Please do not post tabs as comments. Select "correction" instead!