Oops, an error
Loading. Please wait.

Arms Tab

version 1
version 1

Whole song

36,493 views 60 this week
1 commentread comment
1 2 3 4 5
worth learning
x 7
add to favorites
launch autoscroll
font size
0
reset
how to read this tab
guitar tuner
Autoscroll
slow
fast
+/-
esc
set tempo
stop
Help us to improve Ultimate-Guitar.com Take our survey!
×
Author
-------------------------------------------------------------------------------
                             Arms - Christina Perri
-------------------------------------------------------------------------------
Tabbed by: alias470
Email:

E    076900
Abm  466444
A    577655
B5   024400
C#m  446654

Intro:
                E                                Abm
e|------------------------------------------------------------------------------|
B|------------------------------------------------------------------------------|
G|-----------------------------------4---4---4---4---4---4---4---4--------------|
D|---5---5---5---5---5---5---5---5----------------------------------------------|
A|------------------------------------------------------------------------------|
E|-0---0---0---0---0---0---0---0---4---4---4---4---4---4---4---4----------------|

Verse: (keep playing the note E X16 , Abm X8)

    E                                                            Abm
e|------------------------------------------------------------------------------|
B|------------------------------------------------------------------------------|
G|---5-------------------------------------------------------------4------------|
D|------------------------------------------------------------------------------|
A|-0----------------------------------------------------------------------------|
E|---------------------------------------------------------------4--------------|
    I never thought that you would be the one to hold my          heart
But you came around and you knocked me off the ground from the    start

Pre-Chorus:

A            B5           A
You put your arms around me
        B5
and I believe that it's
   E
e|---------------------------------------------------------------------------|
B|---------------------------------------------------------------------------|
G|---------------------------------------------------------------------------|
D|---5--5--5--5---5---5------------------------------------------------------|
A|---------------------------------------------------------------------------|
E|-0--0--0--0---0---0--------------------------------------------------------|
   easier   for you to

B5     A    B5
let me go
    A               B5
You put your arms around me and I'm home
   E X6                      Abm X2
e|---------------------------------------------------------------------------|
B|---------------------------------------------------------------------------|
G|---------------------------4---4-------------------------------------------|
D|---5---5---5---5---5---5---------------------------------------------------|
A|---------------------------------------------------------------------------|
E|-0---0---0---0---0---0---4---4---------------------------------------------|


Verse 2: (keep playing the note E X16 , AbmX8)

    E                                                            Abm
e|---------------------------------------------------------------------------|
B|---------------------------------------------------------------------------|
G|-----------------------------------------------------------------4---------|
D|----5----------------------------------------------------------------------|
A|---------------------------------------------------------------------------|
E|--0------------------------------------------------------------4-----------|

   How many times will let you me change my mind and turn        around?
   I can't decide if I'll let you save my life or if I'll        drown


C#m                B5        E           A
   I hope that you see right through my walls
C#m                B5                  E        A
   I hope that you catch me 'cause I'm already falling
C#m           B5       E            A
   I'll never let our love get so close
       A              B5
   You put your arms around me and I'm home



Interlude:

E     Abm     E     Abm



Verse 3:

    E                                                          Abm
The world is coming down on me and I can't find a reason to be loved
  E                                                        Abm
I never wanna leave you but I can't make you bleed if I'm alone



Pre-Chorus:

A            B5          A
You put your arms around me
        B5              E                 B5    A
and I believe that it's easier for you to let me go



Chorus:

C#m                B5        E           A
   I hope that you see right through my walls
C#m                B5                  E        A
   I hope that you catch me 'cause I'm already falling
C#m           B5       E            A
   I'll never let our love get so close
       A              B5
   You put your arms around me and I'm



Bridge:

C#m       B5      Abm    A
home...  (home...hoooooome)
  C#m              B5            Abm           A
I tried my best to never let you in to see the truth
      C#m          B5
And I never opened up
        Abm
I never truly loved till



Pre-Chorus :
A            B5          A
You put your arms around me
        B5              E                  B5    A
and I believe that it's easier for you to let me go



Interlude:

E     Abm     E     Abm


Chorus and Outro:

C#m                B5        E           A
   I hope that you see right through my walls
C#m                B5                  E        A
   I hope that you catch me 'cause I'm already falling
C#m           B5       E            A
   I'll never let our love get so close
    A              B5               E
You put your arms around me and I'm home
    A              B5               E
You put your arms around me and I'm home...


Don't forget to play the E chord : 076900 .
That how john andersson plays it + it sound better .
Have fun!!!

my youtube tutorial : http://www.youtube.com/watch?v=SjyKtJFLw5A
Suggest correction
comments
print report bad tab
1 comment total.
+1 reply
JCMayerplayer 10 wrote on January 6 2014, 03:01 am

e|---------------------------------------------------------------------------|
B|---------------------------------------------------------------------------|
G|-----------------------------------4---4---4---4---4---4---4---4-----------|
D|---6---6---6---6---6---6---6--6--------------------------------------------|
A|---------------------------------------------------------------------------|
E|-0---0---0---0---0---0---0---0---4---4---4---4---4---4---4---4-------------|

Correct me if I'm wrong but I have a pretty good ear and if you play it against the actual song you had the D string off by a half step. Instead of the 5th fret it's the 6th. Thanks for tabbing the rest though :)

guest
You may want to rate the tab now too:
select rating
Please do not post tabs as comments. Select "correction" instead!