Oops, an error
Loading. Please wait.

Arms Tab

version 2
version 2

Whole song

30,182 views 18 this week
1 commentread comment
1 2 3 4 5
x 13
add to favorites
launch autoscroll
font size
0
reset
how to read this tab
guitar tuner
Autoscroll
slow
fast
+/-
esc
set tempo
stop
Help us to improve Ultimate-Guitar.com Take our survey!
×
Author
Difficulty
intermediate
[Intro]
   E            Abm
E|------------------|
B|------------------|
G|--1-1-1-1-1-1-4-4-|
D|-2-2-2-2-2-2-6-6--|
A|------------------|
E|------------------|

[Verse 1]
(Palm Mute)
      E              B
E|-----------------------------------|
B|-----------------------------------|
G|--1-1-1-1-1-1-1-1--4-4-4-4-4-4-4-4-|
D|-2-2-2-2-2-2-2-2--6-6-6-6-6-6-6-6--|
A|-----------------------------------|
E|-----------------------------------|

[Pre-Chorus]
     A      B
E|------------------|
B|----5-----7-------|
G|--6---6--8--8-----| (x2)
D|-7-7-7--9--9------|
A|------------------|
E|------------------|

E|-----------------0--0-----------0-----7--|
B|----------4----2--2--2---4---2---2-2--4--|
G|--1-1-1-4--4--2-2--2--2-4-4-2-2---2---4--|
D|-2-2-2-----------------------------------|
A|-----------------------------------------|
E|-----------------------------------------|

[Verse 2]
(lead)
E|------------------|
B|------------------|
G|------------------|
D|--1-2---------1---|
A|-2-------------2--|
E|----------------4-|

[Chorus]
(Rhythm)
  Cm B E A
E|------------------|
B|-6-4---2----------|
G|-5-4-1-2----------|
D|-5-4-2-2----------|
A|-4-2-2-0----------|
E|-----0------------|

[Last Bit]
   A  B
E|------------------|
B|-2-4--------------|
G|-2-4--------------|
D|-2-4--------------|
A|-0-2--------------|
E|------------------|

[Fill]
      E              B
E|-----------------------------------|
B|-----------------------------------|
G|--1-1-1-1-1-1-1-1--4-4-4-4-4-4-4-4-|
D|-2-2-2-2-2-2-2-2--6-6-6-6-6-6-6-6--|
A|-----------------------------------|
E|-----------------------------------|

[Bridge]
  Cm B Abm A
E|-----------------------------------|
B|-6-4---2---------------------------|
G|-5-4-4-2---------------------------|
D|-5-4-5-2---------------------------|
A|-4-2-5-0---------------------------|
E|-----4-----------------------------|

[Post Chorus 3]
E|----------------------------------------|
B|----------------------------------------|
G|----------------------------------------|
D|--2-4-1----2-4-6-4----------------------|
A|-2--------2-----------------------------|
E|----------------------------------------|

[Lead Piano]
E|--5-4------------------------------|
B|-----------------------------------|
G|-4---4-----------------------------|
D|-----------------------------------|
A|-----------------------------------|
E|-----------------------------------|

[Last Chorus]
(lead)
E|-2-4-0-----------------------------|
B|-----------------------------------|
G|-----------------------------------|
D|-----------------------------------|
A|-----------------------------------|
E|-----------------------------------|

[Ending]
   A B E
E|---------------------------------------|
B|-2-4-----------------------------------|
G|-2-4-1---------------------------------|
D|-2-4-2---------------------------------|
A|-0-2-2---------------------------------|
E|-----0---------------------------------|
Suggest correction
comments
print report bad tab
1 comment total.
+1 reply
kekimmie123 37 Aug 18, 2014 03:18 PM

i think the intro sounds like the recording like this:


e|---------------------------------------------------------------------------|
B|---------------------------------------------------------------------------|
G|---1---1----1---1---1---1---1---1---4---4---4---4---4---4---4---4----------|
D|---------------------------------------------------------------------------|
A|---------------------------------------------------------------------------|
E|-0---0---0---0---0---0---0---0----4---4---4---4---4---4---4---4------------|


either way is correct, though. Nice tab!

guest
You may want to rate the tab now too:
select rating
Wanna post a correction for this tab? Suggest correction