Oops, an error
Loading. Please wait.

Arms Chords

version 8
version 8

Whole song

433 views 15 this week
no commentswrite comment
1 2 3 4 5
3 more votes to show rating
add to favorites
×
Save as Personal and add changes to this tab that will be seen only by you. Learn more ›
launch autoscroll
font size
0
reset
transpose
0
reset
display chords
guitar tuner
Autoscroll
slow
fast
+/-
esc
set tempo
stop
Author
Difficulty
intermediate
About this tab version
My version combines the intro tab with the whole song in an easier way to play it with a unique tuning (considering all the barre chords). Was this info helpful? Yes No
Strumming
There is no strumming pattern for this song yet. and get +5 IQ
Tabbed by: Emily Merkel

Tune the D up to an E
The following chords will be 

E: E---   G#m: E-4----    A: E---    B: E-2----    C#m: E-4----
   B---        B-4----       B-2-       B-2--4-         B-4--5-  Use finger 3}\ So you can transition to
   G-1-        G-4----       G-2-       G-2--4-         G-4--6-  Use finger 4}/ the B chord easier
   E---        E-4----       E---       E-2----         E-4----
   A-2-        A-4--6-       A---       A-2----         A-4----
   E---        E-4----       E---       E-2----         E-4----

If you don't tune the D up to an E, you can still play the song; but, you won't be able to play the intro tab


Intro:
E---------------------------------|---------------------------------|
B---------------------------------|---------------------------------|
G---1---1---1---1---1---1---1---1-|---4---4---4---4---4---4---4---4-|
E---0---0---0---0---0---0---0---0-|---4---4---4---4---4---4---4---4-| x2
A---------------------------------|---------------------------------|
E-0---0---0---0---0---0---0---0---|-4---4---4---4---4---4---4---4---|

Verse 1:
E---------------------------------|---------------------------------|---------------------------------|
B---------------------------------|---------------------------------|---------------------------------|
G---1---1---1---1---1---1---1---1-|---1---1---1---1---1---1---1---1-|---4---4---4---4---4---4---4---4-|
E---0---0---0---0---0---0---0---0-|---0---0---0---0---0---0---0---0-|---4---4---4---4---4---4---4---4-| x2
A---------------------------------|---------------------------------|---------------------------------|
E-0---0---0---0---0---0---0---0---|-0---0---0---0---0---0---0---0---|-4---4---4---4---4---4---4---4---|

Pre-Chorus:
E---------------------------------|---------------------------------|     
B---2---2---2---2---4---4---4---4-|---2---2--2---2----4---4---4---4-|     
G---2---2---2---2---4---4---4---4-|---2---2--2---2----4---4---4---4-|     
E-0---0---0---0---2---2---2---2---|-0---0---0---0---2---2---2---2---|    
A---------------------------------|---------------------------------|     
E---------------------------------|---------------------------------|

E---------------------------------|---------------------------------|
B---------------------------4---4-|--2---2---2---2---2---2---2---2--|
G---1---1---1---1---1---1---4---4-|--2---2---2---2---2---2---2---2--|
E---0---0---0---0---0---0-2---2---|-0---0---0---0---0---0---0---0---|
A---------------------------------|---------------------------------|
E-0---0---0---0---0---0-----------|---------------------------------|

E-----------------2-|
B---2---2---2---2-4-|
G---2---2---2---2-4-|...and I'm home... Strum up and down E
E-0---0---0----0--2-|
A-----------------2-|
E-----------------2-|

Verse 2:
E                                                     G#m...
How many times will I let you change my mind and turn around
E                                                      G#m...
I can't decide if I'll let you save my life or if I'll drown

Chorus:
C#m                B         E               A  
   I hope that you see right through my walls
C#m                B                   E              A
   I hope that you catch me 'cause I'm already falling
C#m            B       E               A         A              B                     
   I'll never let our love get so close  /   You put your arms around me and I'm home

Interlude: E G#m E G#m

Verse 3:
    E                                                          G#m...
The world is coming down on me and I can't find a reason to be loved
E                                                         G#m...      
I never wanna leave you but I can't make you bleed if I'm alone

Pre-Chorus:
A            B           A           B              E                 B      A   
You put your arms around me and I believe that it's easier for you to let me go

Chorus:
C#m                B         E               A  
   I hope that you see right through my walls
C#m                B                   E              A
   I hope that you catch me 'cause I'm already falling
C#m            B       E               A                      
   I'll never let our love get so close  

Bridge:
    A              B                C#m... B... G#m... A...   
You put your arms around me and I'm HOME
  C#m              B             G#m            A      
I tried my best to never let you in to see the truth
      C#m          B           G#m
And I never opened up I never truly loved till

Pre-Chorus: Strum Once
A            B           A           B              E                 B      A   
You put your arms around me and I believe that it's easier for you to let me go

Interlude: E G#m E G#m

Chorus:
C#m                B         E               A  
   I hope that you see right through my walls
C#m                B                   E              A
   I hope that you catch me 'cause I'm already falling
C#m            B       E               A         A              B                    E              
   I'll never let our love get so close  /   You put your arms around me and I'm home





Suggest correction
Give kudos to tab author, rate the tab!
1 2 3 4 5
comments
print report bad tab
guest
You may want to rate the tab now too:
select rating
Wanna post a correction for this tab? Suggest correction