Oops, an error
Loading. Please wait.

Distance Tab

version 2
version 2

Intro

Whole song

9,295 views 15 this week
2 commentsread comments
1 2 3 4 5
accurate
x 4
add to favorites
launch autoscroll
font size
0
reset
how to read this tab
guitar tuner
Tab Pro tools
  • play this tab
  • loop segment
  • change instrument
  • show fretboard
  • metronome
×
Best way to learn
"Distance"
Autoscroll
slow
fast
+/-
esc
set tempo
stop
Contributor
Difficulty
novice
This was my first time to make a tab, it wasn't that accurate but hope you can enjoy it :)

Capo on 2nd fret

e|--------------------------------------------------------------------------|
B|--------------------------------------------------------------------------|
G|------0--------0--------0--------0-----------------0--------0--------0----|
D|---2--------2--------2--------2--------2--------2--------2--------2-----2-|
A|3--------3--------3--------3--------0--------3--------3--------3-------0--|
E|--------------------------------------------------------------------------|

e|-----0--0-----------------0--0--------------0--0---------------------|
B|--3--------3--3--1-----3--------3--3--1--3--------3--3--1-------0--1-|
G|--------------------0------------------------------------------------|
D|-----------------------------------------------------------5/2-------|
A|--------------------3-----------------3------------------------------|
E|---------------------------------------------------------------------|

e|-----0--0-----------------0--0--------------0--0---------------------|
B|--3--------3--3--1-----3--------3--3--1--3--------3--3--1-------0--1-|
G|--------------------0------------------------------------------------|
D|-----------------------------------------------------------5---------|
A|---------------------------------------------------------------------|
E|-----------------------------------------------------------3/0-------|


e|--3--0------0--------3--3--0-----------0--------3--0-----0-----------|
B|--------3------0--1-----------3--3--3-----0--1--------3-----0--1--3--|
G|---------------------------------------------------------------------|
D|---------------------------------------------------------------------|
A|---------------------------------------------------------------------|
E|--1-----3------------1--------------3-----------1-----3-----------3--|

e|--0--1--0------------------------------------------------------------|
B|---------------------------------------------------------------------|
G|-----0---------------------------------------------------------------|
D|---------------------------------------------------------------------|
A|---------------------------------------------------------------------|
E|---------------------------------------------------------------------|

e|--------------------------------------------------------------------------|
B|--------------------------------------------------------------------------|
G|------0--------0--------0--------0-----------------0--------0--------0----|
D|---2--------2--------2--------2--------2--------2--------2--------2-----2-|
A|3--------3--------3--------3--------0--------3--------3--------3-------0--|
E|--------------------------------------------------------------------------|

e|-----0--0-----------------0--0--------------0--0---------------------|
B|--3--------3--3--1-----3--------3--3--1--3--------3--3--1-------0--1-|
G|--------------------0------------------------------------------------|
D|-----------------------------------------------------------5/2-------|
A|--------------------3-----------------3------------------------------|
E|---------------------------------------------------------------------|

e|-----0--0-----------------0--0--------------0--0-0-------------------|
B|--3--------3--3--1-----3--------3--3--1--3--------3--3--1-------0--1-|
G|--------------------0------------------------------------------------|
D|-----------------------------------------------------------5---------|
A|---------------------------------------------------------------------|
E|-----------------------------------------------------------3/0-------|


e|--3--0------0--------3--3--0-----------0--------3--0-----0-----------|
B|--------3------0--1-----------3--3--3-----0--1--------3-----0--1--3--|
G|---------------------------------------------------------------------|
D|---------------------------------------------------------------------|
A|---------------------------------------------------------------------|
E|--1-----3------------1--------3-----------------1-----3-----------3--|

e|--0--1--3--5--0-----------3--0-----------0--1--0-----------0--0--1---|
B|--------3--------3--1-----------3--1--3-----------3--1--3------------|
G|--------0---------------0--------------------------------------------|
D|--------0--------------------------------2---------------------------|
A|--------2-----------0--------------0---------------------------------|
E|-----3--3-----------------3--------------------------------3---------|

e|--0-----0------------------------------------------------------------|
B|-----3-----3--1------------------------------------------------------|
G|---------------------------------------------------------------------|
D|---------------------------------------------------------------------|
A|---------------------------------------------------------------------|
E|---------------------------------------------------------------------|

e|--3--0------0--------3--3--0-----------0--------3--0-----0-----------|
B|--------3------0--1-----------3--3--3-----0--1--------3-----0--1--3--|
G|---------------------------------------------------------------------|
D|---------------------------------------------------------------------|
A|------------------------------------------0--------------------------|
E|--1-----3------------1--------3-----------------1-----3-----------3--|

e|--0--1--3--0--------0--------3--3--0--------5--0--3--0-----3--0-----0|
B|--------------3--3-----0--1-----------3--1--------------3--------3---|
G|--------------------------------------------3------------------------|
D|---------------------------------------------------------------------|
A|---------------------------------------------------------------------|
E|--------1-----3--------------1--------3--------------------1-----3---|

e|-----------0--1------------------------------------------------------|
B|--0--1--3--------5/1-------------------------------------------------|
G|---------------------------------------------------------------------|
D|---------------------------------------------------------------------|
A|--------------2------------------------------------------------------|
E|--------3-------------------------------------------------------------|

e|--------------------------------------------------------------------------|
B|--------------------------------------------------------------------------|
G|------0--------0--------0--------0-----------------0--------0--------0----|
D|---2--------2--------2--------2--------2--------2--------2--------2------2|
A|3--------3--------3--------3--------0--------3--------3--------3--------0-|
E|--------------------------------------------------------------------------|

e|--------------------------------------------------------------------------|
B|--------------------------------------------------------------------------|
G|------0--------0--------0--------0-----------------0--------0--------0----|
D|---2--------2--------2--------2--------2--------2--------2--------2------2|
A|3--------3--------3--------3--------0--------3--------3--------3--------0-|
E|--------------------------------------------------------------------------|


e|-------------------------------------------------------------------------0|
B|-------------------------------------------------------------------------1|
G|------0--------0--------0--------0-----------------0--------0--------0---0|
D|---2--------2--------2--------2--------2--------2--------2--------2------2|
A|3--------3--------3--------3--------0--------3--------3--------3---------3|
E|--------------------------------------------------------------------------|
comments
print report bad tab
2 comments total.
0 reply
Jane Pan wrote on September 19 2012, 06:28 am

Quite nice, keep it up!
Few error there, but still ok ^__^

0 reply
Marvel RL wrote on September 23 2012, 04:13 am

ThankQ,I'm still a newbie LOL

I want to post or [tab]
guest
You may want to rate the tab now too:
select rating
Please do not post tabs as comments. Select "correction" instead!