Oops, an error
Loading. Please wait.

Distance Chords

version 3
version 3
134,779 views 288 this week
4 commentsread comments
1 2 3 4 5
excellent!
x 104
add to favorites
launch autoscroll
font size
0
reset
transpose
0
reset
simplify chords
display chords
guitar tuner
Tab Pro tools
  • play this tab
  • loop segment
  • change instrument
  • show fretboard
  • metronome
×
Best way to learn
"Distance"
Autoscroll
slow
fast
+/-
esc
set tempo
stop
Contributor
Difficulty
Capo
intermediate
2nd fret
If you're curious, I think the fingerpicking is something along these lines:

e--------------------------------------------------------------------|
B-----1----1-----1----1----------------------------------------------|
G---0-----0-----0----0-----0-----------------------------------------|
D--------------------------------------------------------------------|
A-3-----3-----3----3-----0-------------------------------------------|
E--------------------------------------------------------------------|

Capo 2

Intro: C (fingerpicked)

Verse (Fingerpicked - optional)
C       Cmaj7
Sun is filling up the room
C         Cmaj7
And I can hear you dreaming
C      Cmaj7          Em
Do you feel the way I do?
G
Right now?

C     Cmaj7
I wish we would just give up
C               Cmaj7
'Cause the best part is falling
C       Cmaj7        Em
Call it anything but love
    G
And I will

Chorus (strummed)
Fmaj7
make sure
G
To keep my distance
Am
Say I love you
G
When you're not listening
Fmaj7
And how long
G
Can we keep this up, up, up?

Verse (fingerpicked - optional)
C            Cmaj7
Please don't stand so close to me
C          Cmaj7
I'm having trouble breathing
C     Cmaj7               Em
I'm afraid of what you'll see
G
Right now

C             Cmaj7
I'll give you everything I am
C      Cmaj7
All my broken heartbeats
C       Cmaj7             Em
Until I know you'll understand
    G
And I will

Chorus (strummed)
Fmaj7
make sure
G
To keep my distance
Am
Say I love you
G
When you're not listening
Fmaj7
And how long
G
Can we keep this up, up, up?

Bridge (strummed)
Am
And I keep waiting
Fmaj7
For you to take me
C
You keep waiting
E
To save what we have


So I'll

Fmaj7
make sure
G
To keep my distance
Am
Say I love you
G
When you're not listening
   Fmaj7
And how long
G
Can we keep this up, up, up?

Fmaj7
Make sure
G
To keep my distance
Am
Say I love you
G
When you're not listening
    Fmaj7
And how long
G
Till we call this love, love, love?

Outro (Fingerpicked) C
comments
print report bad tab
4 comments total. Showing first comments.
+5 reply
518871MW wrote on May 17 2013, 08:09 pm

I think intro is C shape
e-------------------------------------------
B-------------------------------------------
G--------0--------0--------0--------0-------
D-----2--------2--------2--------2--------2-
A--3--------3--------3--------3--------0----
E-------------------------------------------

0 reply
fallon lockwood wrote on July 13 2013, 09:52 pm

what is the strumming pattern?

0 reply
superiris67 wrote on October 5 2013, 12:19 pm

yeah, can you post the rest of the strumming pattern?

I want to post or [tab]
guest
You may want to rate the tab now too:
select rating
Please do not post tabs as comments. Select "correction" instead!