Oops, an error
Loading. Please wait.

Distance Chords

version 4
version 4
54,688 views 33 this week
1 commentread comment
1 2 3 4 5
x 10
add to favorites
launch autoscroll
font size
0
reset
transpose
0
reset
simplify chords
display chords
guitar tuner
Autoscroll
slow
fast
+/-
esc
set tempo
stop
Help us to improve Ultimate-Guitar.com Take our survey!
×
Author
[Intro]

e|------------------------------------------------------------------------------|
B|------------------------------------------------------------------------------|
G|--------0--------0--------0--------0------------------------------------------|
D|-----2--------2--------2--------2--------2------------------------------------|
A|--3--------3--------3--------3--------0---------------------------------------| x2
E|------------------------------------------------------------------------------|


[Verse]

C (like the intro)
The sun is filling up the room

And I can hear you dreaming
                      Em
Do you feel the way I do 
G
right now?

C (like the intro)
I wish we would just give up

Cause the best part is falling
                     Em
Call it anything but love
    G
And I will 


[Chorus]

Fmaj7        G
make sure to keep my distance
Am                  G
Say I love you when you're not listening
    Fmaj7    G                G   G   G
And how long can we keep this up, up, up


[Instrumental]

e|------------------------------------------------------------------------------|
B|------------------------------------------------------------------------------|
G|--------0--------0--------0--------0------------------------------------------|
D|-----2--------2--------2--------2--------2------------------------------------|
A|--3--------3--------3--------3--------0---------------------------------------| x2
E|------------------------------------------------------------------------------|


[Verse]

C                     Am7   A5 C
please don't stand so close to me
    C              Am7 A5 C
I'm having trouble breathing
C             Am7  A5     Em
I'm afraid of what you'll see 
G
right now

C                       Am7 A5   C 
I'd give you everything I   am
C             Am7   A5   C
All my broken heart beats
C                Am7 A5  Em
Until I know you un--derstand
    G
And I will


[Chorus]

Fmaj7        G
make sure to keep my distance
Am                  G
Say I love you when you're not listening
    Fmaj7    G                G   G   G
And how long can we keep this up, up, up

Fmaj7                       C
        And I keep waiting
                   Am
For you to take me-eee
Am            E
You keep waiting

To save what we have

So I'll 
Fmaj7        G
make sure to keep my distance
Am                  G
Say I love you when you're not listening
    Fmaj7    G                G   G   G   (pause)
And how long can we keep this up, up, up


Fmaj7        G
make sure to keep my distance
Am                  G
Say I love you when you're not listening
    Fmaj7    G                G     G     G
And how long can we keep this love' love' love


[Outro]

e|------------------------------------------------------------------------------|
B|------------------------------------------------------------------------------|
G|--------0--------0--------0--------0------------------------------------------|
D|-----2--------2--------2--------2--------2------------------------------------|
A|--3--------3--------3--------3--------0---------------------------------------| x6
E|------------------------------------------------------------------------------|



C     032010
Em    022000
G     320033
Fmaj7 x03210
Am    002210
Am7   002010
A5    002000
E     022100
Suggest correction
comments
print report bad tab
1 comment total.
0 reply
carriep63 13,230 Sep 27, 2013 10:23 AM

I followed you here from youtube when I was trying to figure out the picking for the Em in the beginning. So far, your version of the song is my favorite, great job! The only thing I play differently the the bridge. I play:

[Am]I keep waiting-[Fmaj7]for you to take meee[C]ee-You keep waitii[E}ing to save what we have.

I noticed on your video you actually sing it differently than C.Perri in that part, so for the way you sing it your own tab works really well.

Thanks!

guest
You may want to rate the tab now too:
select rating
Wanna post a correction for this tab? Suggest correction