Oops, an error
Loading. Please wait.

Jar Of Hearts bass

version 1
version 1

Whole song

Interactive

1,114 views 15 this week
no commentswrite comment
1 2 3 4 5
1 last vote to show rating
add to favorites
×
Save as Personal and add changes to this tab that will be seen only by you. Learn more ›
×
You can save this tab as Personal to edit and correct it or add notes. All changes will be seen only by you. Learn more »
launch autoscroll
font size
0
reset
guitar tuner
edit
Autoscroll
slow
fast
+/-
esc
set tempo
stop
Author
Difficulty
-------------------------------------------------------------------------------
                             Jar of Hearts - Christina Perri
-------------------------------------------------------------------------------
Tabbed by: Julia Nargis
E-mail: bydesign68@gmail.com

*There are a couple places at the end of the song where you'll have to listen
 to the melody of the song and play the notes with that. This is my first tab ever
 and I'm pretty proud of it so I hope you enjoy!*

**IMPORTANT**
I put asterisks (*) next to the notes for vibrato because the squiggle is too hard
to read with the straight dashes, so I hope that doesn't confuse you.


Tuning: Standard (EADG)


VERSE 1 (0:00)

G|-----0---------------0-----------------------------------------------------|
D|---------3---3-----------3-------------------------------------------------|
A|-3---------------3-----------6---------------------------------------------|
E|---------------------------------------------------------------------------|


PRE CHORUS (0:26)

G|---------------------------------------------------------------------------|
D|-----6-6-------------6-6---------------------------------------------------|
A|---------3-3-1-1---------3-3-1-1-------------------------------------------|
E|-4-4-------------4-4-------------------------------------------------------|


CHORUS (0:38)

G|-----------------------------4-4-------------------------------------------|
D|---------------------------------------------------------------------------|
A|-/6-6-6-66-8-8-8-65-3-3-3-33-----2-2---------------------------------------|
E|---------------------------------------------------------------------------|

G|-----------------------------4-4-------------------------------------------|
D|---------------------------------------------------------------------------|
A|-/6-6-6-66-8-8-8-65-3-3-3-33-----2-2-/6*---65------------------------------|
E|---------------------------------------------------------------------------|


VERSE 2 (1:08)

G|---------0-0-0-0-------------------------0-0-0-0---------------------------|
D|-----------------3-3-3-3-------------------------3-3-3-3-------------------|
A|-3-3-3-3-------------------------3-3-3-3-----------------------------------|
E|-------------------------1-1-1-1-------------------------1-1-1-1-----------|


PRE CHORUS (1:33)

G|---------------------------------------------------------------------------|
D|-----6-6-------------6-6---------------------------------------------------|
A|---------3-3-1-1---------3-3-1-1-------------------------------------------|
E|-4-4-------------4-4-------------------------------------------------------|


CHORUS (1:46)

G|-----------------------------4-4-------------------------------------------|
D|---------------------------------------------------------------------------|
A|-/6-6-6-66-8-8-8-65-3-3-3-33-----2-2---------------------------------------|
E|---------------------------------------------------------------------------|

G|-----------------------------4-4-------------------------------------------|
D|---------------------------------------------------------------------------|
A|-/6-6-6-66-8-8-8-65-3-3-3-33-----2-2-/6*-----------------------------------|
E|---------------------------------------------------------------------------|


BRIDGE (2:20)  [start playing after "...to feel alright"]

G|-5*--4*--3*--2*------------------5*--4*--3*--2*----------------------------|
D|---------------------------------------------------------------------------|
A|-----------------3*--2*--1*--0*--------------------------2*--2*------------|
E|-------------------------------------------------4*--4*--------------------|


FINAL CHORUS (2:46)

G|-----------------------------4-4-------------------------------------------|
D|---------------------------------------------------------------------------|
A|-/6-6-6-66-8-8-8-65-3-3-3-33-----2-2---------------------------------------| (x3)
E|---------------------------------------------------------------------------|


G|---------------------------------4-4---------------------------------------|
D|---------------------------------------------------------------------------|
A|-/6-6-6-66-8-8-8-65-3-3--(33333)-----2-2-/6-6-6-6--------------------------|
E|---------------------------------------------------------------------------|
D|---------------(Play the 3's in rhythm with the melody)--------------------|


G|-4-4--------------4-4-------------4*---------------------------------------|
D|---------------------------------------------------------------------------|
A|-----2-2-/6-6-6-6-----2-2-/6--6--------2*---/6*----------------------------|
E|---------------------------------------------------------------------------|




| /  slide up
| \  slide down
| h  hammer-on
| p  pull-off
| ~  vibrato
| +  harmonic
| x  Mute note
==============================================================================

            
            
Suggest correction
Creating personal tab
Creating personal tab
You can edit any tab online and save it as your Personal.

You can edit, replace or remove any tab part or add personal notes – all changes will be seen only by you.

Personal tabs can be accessed anytime from any device, even offline.
Learn more »
Give kudos to tab author, rate the tab!
1 2 3 4 5
comments
print report bad tab
guest
You may want to rate the tab now too:
select rating
Wanna post a correction for this tab? Suggest correction