Oops, an error
Loading. Please wait.

Wait And See bass

31 views 1 this week
no commentswrite comment
1 2 3 4 5
3 more votes to show rating
add to favorites
×
Save as Personal and add changes to this tab that will be seen only by you. Learn more ›
×
You can save this tab as Personal to edit and correct it or add notes. All changes will be seen only by you. Learn more »
launch autoscroll
font size
0
reset
guitar tuner
edit
Autoscroll
slow
fast
+/-
esc
set tempo
stop
Author
Difficulty
Tabbed by: 6METAL6BASSIST6
E-mail: petergriffinav@gmail.com

Tuning: EADG

G|------------------------------------------------------------------------------------------------|
D|7-------------------7---5-------------------5---3-------------------3---------------------------|
A|------------------------------------------------------------------------5-------------------5---|
E|------------------------------------------------------------------------------------------------|

G|------------------------------------------------------------------------------------------------|
D|------------------------------------------------7-------------------7-------------------6-------|
A|7-------------------7---7-------------------7---------------------------7-------7---------------|
E|------------------------------------------------------------------------------------------------|

0:15

G|------------------------------------------------------------------------------------------------|
D|7-------------------7---5-------------------5---3-------------------3---------------------------|
A|------------------------------------------------------------------------5-------------------5---|
E|------------------------------------------------------------------------------------------------|

G|------------------------------------------------------------------------------------------------|
D|------------------------------------------------7-------------------7-------------------6-------|
A|7-------------------7---7-------------------7---------------------------7-------7---------------|
E|------------------------------------------------------------------------------------------------|

0:29

G|------------------------------------------------------------------------------------------------|
D|7-------------------7---5-------------------5---3-------------------3---------------------------|
A|------------------------------------------------------------------------5-------------------5---|
E|------------------------------------------------------------------------------------------------|

G|------------------------------------------------------------------------------------------------|
D|------------------------------------------------7-----------------------7-------7-------5-------|
A|7-------------------7---7-------------------7-----------------------7---------------------------|
E|------------------------------------------------------------------------------------------------|

0:43

G|------------------------------------------------------------------------------------------------|
D|3-------------------3---5-------------------5---7-----------------------7-------7-------5-------|
A|--------------------------------------------------------------------7---------------------------|
E|------------------------------------------------------------------------------------------------|

G|------------------------------------------------------------------------------------------------|
D|3-------------------3---5---------------5-------7-------------------5-------------------6-------|
A|------------------------------------------------------------------------7-----------------------|
E|------------------------------------------------------------------------------------------------|

0:57

G|------------------------------------------------------------------------------------------------|
D|7-------------------7---5-------------------5---3-------------------3---------------------------|
A|------------------------------------------------------------------------5---------------5-------|
E|------------------------------------------------------------------------------------------------|

G|------------------------------------------------|
D|------------------------------------------------|
A|7-------------------7---7-------------------7---|
E|------------------------------------------------|

1:08

G|------------------------------------------------------------------------------------------------|
D|7-------------------7---5-------------------5---3-------------------3---------------------------|
A|------------------------------------------------------------------------5-------------------5---|
E|------------------------------------------------------------------------------------------------|

G|------------------------------------------------------------------------------------------------|
D|------------------------------------------------7-------------------7-------------------6-------|
A|7-------------------7---7-------------------7---------------------------7-------7---------------|
E|------------------------------------------------------------------------------------------------|

1:22

G|------------------------------------------------------------------------------------------------|
D|7-------------------7---5-------------------5---3-------------------3---------------------------|
A|------------------------------------------------------------------------5---------------5-------|
E|------------------------------------------------------------------------------------------------|

G|------------------------------------------------------------------------------------------------|
D|------------------------------------------------7-------------------7-------------------6-------|
A|7-------------------7---7-------------------7---------------------------7-------7---------------|
E|------------------------------------------------------------------------------------------------|

1:36

G|------------------------------------------------------------------------------------------------|
D|7-------------------7---5-------------------5---3-------------------3---------------------------|
A|------------------------------------------------------------------------5---------------5-------|
E|------------------------------------------------------------------------------------------------|

G|------------------------------------------------------------------------------------------------|
D|------------------------------------------------7-----------------------7-------7-------5-------|
A|7-------------------7---7-------------------7-----------------------7---------------------------|
E|------------------------------------------------------------------------------------------------|

1:50

G|------------------------------------------------------------------------------------------------|
D|3-------------------3---5-------------------5---7-----------------------7-------7-------5-------|
A|----------------------------------------5---------------------------7---------------------------|
E|------------------------------------------------------------------------------------------------|

G|------------------------------------------------------------------------------------------------|
D|3-------------------3---5---------------5-------7-------------------5-------------------6-------|
A|------------------------------------5-----------------------------------7-------7---------------|
E|------------------------------------------------------------------------------------------------|

2:05

G|------------------------------------------------------------------------------------------------|
D|7-------------------7---5-------------------5---3-------------------3---------------------------|
A|------------------------------------------------------------------------5---------------5-------|
E|------------------------------------------------------------------------------------------------|

G|------------------------------------------------|
D|------------------------------------------------|
A|7-------------------7---7-------------------7---|
E|------------------------------------------------|

2:15

G|------------------------------------------------------------------------------------------------|
D|7-------------------7---5-------------------5---3-------------------3---------------------------|
A|------------------------------------------------------------------------5---------------5-------|
E|------------------------------------------------------------------------------------------------|

G|------------------------------------------------------------------------------------------------|
D|------------------------------------------------7-----------------------7-------7-------5-------|
A|7-------------------7---7-------------------7-----------------------7---------------------------|
E|------------------------------------------------------------------------------------------------|

2:29

G|------------------------------------------------------------------------------------------------|
D|3-------------------3---5---------------5-------7-----------------------7-------7-------5-------|
A|------------------------------------5-------------------------------7---------------------------|
E|------------------------------------------------------------------------------------------------|

G|------------------------------------------------------------------------------------------------|
D|3-------------------3---5---------------5-------7-------------------5-------------------6-------|
A|------------------------------------5-----------------------------------7-------7---------------|
E|------------------------------------------------------------------------------------------------|

2:44

G|------------------------------------------------------------------------------------------------|
D|7-------------------7---5-------------------5---3-------------------3---------------------------|
A|------------------------------------------------------------------------5---------------5-------|
E|------------------------------------------------------------------------------------------------|

G|------------------------------------------------|
D|------------------------------------------------|
A|7-------------------7---7-------------------7---|
E|------------------------------------------------|

2:54

G|------------------------------------------------------------------------------------------------|
D|7-------------------7---5-------------------5---3-------------------3---------------------------|
A|------------------------------------------------------------------------5---------------5-------|
E|------------------------------------------------------------------------------------------------|

G|------------------------------------------------------------------------------------------------|
D|----------------------------------------5---------5h7-------5-----------------------------------|
A|7-------------------7---7-------7-------------------------------------7-------------------------|
E|------------------------------------------------------------------------------------5-----------|

            
            
Suggest correction
Creating personal tab
Creating personal tab
You can edit any tab online and save it as your Personal.

You can edit, replace or remove any tab part or add personal notes – all changes will be seen only by you.

Personal tabs can be accessed anytime from any device, even offline.
Learn more »
Give kudos to tab author, rate the tab!
1 2 3 4 5
comments
print report bad tab
guest
You may want to rate the tab now too:
select rating
Wanna post a correction for this tab? Suggest correction