Oops, an error
Loading. Please wait.

The Modern Racket tab

115 views 1 this week
no commentswrite comment
1 2 3 4 5
3 more votes to show rating
add to favorites
×
Save as Personal and add changes to this tab that will be seen only by you. Learn more ›
×
You can save this tab as Personal to edit and correct it or add notes. All changes will be seen only by you. Learn more »
launch autoscroll
font size
0
reset
how to read this tab
guitar tuner
edit
Autoscroll
slow
fast
+/-
esc
set tempo
stop
Author
Difficulty
The Modern Racket Single: The Modern Racket by Christofer Drew

Tuning Note: DO NOT TUNE YOUR E STRING UP! Tune it down to G, your E string will break if you do so.

                                                                                 
[Intro/Break]

"I don't know, why I still try..."
                                                                                 Just this end part is x4
G|-------0---0---0---0-------0---0---0---0-------0---0---0---0---------------|   |-------0---0---0---0---|
D|-------0---0---0---0-------0---0---0---0-------0---0---0---0---------------|   |-------0---0---0---0---|
G|-------0---0---0---0-------0---0---0---0-------0---0---0---0---------------|   |-------0---0---0---0---|x4
D|-------0---0---0---0-------0---0---0---0-------0---0---0---0---------------|   |-------0---0---0---0---|
B|-------0---0---0---0-------0---0---0---0-------0---0---0---0---------------|   |-------0---0---0---0---|
E|---3-------------------5-------------------7-------------------8---7---5---|   |---3-------------------|


[Verses]
                                                                      Just this end part is x4
G|-------0---0---0---0-------0---0---0---0-------0---0---0---0---|   |-------0---0---0---0---|   
D|-------0---0---0---0-------0---0---0---0-------0---0---0---0---|   |-------0---0---0---0---|   
G|-------0---0---0---0-------0---0---0---0-------0---0---0---0---|   |-------0---0---0---0---|x4   
D|-------0---0---0---0-------0---0---0---0-------0---0---0---0---|   |-------0---0---0---0---|  
B|-------0---0---0---0---1-------------------3-------------------|   |-------0---0---0---0---|  
E|---3-----------------------------------------------------------|   |---3-------------------|

Lyrics:

Hey my friend how do you do today? 
The suns burned out and the skies a pale shade of grey 
Our ambitions of adventure are so calmly misinterpreted 
Hey my friend what should we do today? 
And I don't know why I still try 

I go around told but I do what I want 
Passion turns to action turns to making a few lousy bucks 
This careless philosophy might just be the death of me 
But I do what I do and you don't what you don't 
And I don't know why I still try

Hey buddy old pal what has been new with you? 
The moon is twice full but the darkness has you so blue 
You're expectations are overwhelming but not just for you 
but me too 
Hey buddy old pal I've had it up to here with you 
And I don't know why I still try 

This modern racket rattles us around like a noisy truck 
It's success is just as tempting as to not give in no filthy fucks 
The dirty jokes are selling like gold on a rope 
Yes this modern racket rattles us around with no hope 
And I don't know why I still try

            
            
Suggest correction
Creating personal tab
Creating personal tab
You can edit any tab online and save it as your Personal.

You can edit, replace or remove any tab part or add personal notes – all changes will be seen only by you.

Personal tabs can be accessed anytime from any device, even offline.
Learn more »
Give kudos to tab author, rate the tab!
1 2 3 4 5
comments
print report bad tab
guest
You may want to rate the tab now too:
select rating
Wanna post a correction for this tab? Suggest correction