Oops, an error
Loading. Please wait.

Crack Of Light Tab

10 views 1 this week
no commentswrite comment
1 2 3 4 5
3 more votes to show rating
add to favorites
launch autoscroll
font size
0
reset
how to read this tab
guitar tuner
Autoscroll
slow
fast
+/-
esc
set tempo
stop
Help us to improve Ultimate-Guitar.com Take our survey!
×
Author
About this tab version
It is the only one, coming from the artist himself. There are no sections and I have written the tab the best I can. Was this info helpful? Yes No
-------------------------------------------------------------------------------
                             Crack Of Light - Christopher McLaren
-------------------------------------------------------------------------------
Tabbed by: Christopher McLaren
E-mail: chris_mclaren948@hotmail.co.uk

YouTube: www.youtube.com/ChristopherMcLarenExperience
Soundcloud: soundcloud.com/christopher-mclaren948
Twitter: twitter.com/McLaren_Music



Tuning: Standard E A D G B E 

[Intro]

e|---------------------------------------------------------------------------------|
B|----------------------3----------------------------------------------------------|
G|---------2-4--5-4--------5-4h5p4-4-------4-----------------4---------------------|
D|-------2----------4------------------2----2---2--------2----2---2---5-5-5-4------|
A|--0--0----------------------------------------------------------------------2----|
E|--------------------0--------------0---0----0---0---0-0--0----0---0-----------0--|

e|-------------------0-----------------------------------------0-----0-----0----|
B|--------0--1-0-------3p1-1-0-------0---------------------------0-----0-----0--|
G|------2--------2---------------2-----2---------5-4--5-4h5p4------4-----4------|
D|----3----------------------------------------5--------------------------------|
A|------------------------------------------------------------------------------|
E|--1--------------1-----------1---1-----1/3-3----------------------------------|

[Fast Bit]

e|---------------------------0------------------------0--------------------------------|
B|------------------------3-----3-----------------------3-1---3-1-0---0-1-------0------|
G|----2-----4---4--5----------------4---0---0---2-2---------2-------------4-------2----|
D|-------2------------2-----2--2--2---2---2----3----3---------------3-------3-3-----3--|
A|--0--0---0--0--0--0---0---------------------0----------------------------------------|
E|-------------------------------------------------------------------------------------|

e|--------------------------0-----------------------------0---------------------------------0--------|
B|-------------------------------------------------------5--3-----------3-------------3---5-----5----|
G|----2---4---5---5p4---4-------4---4-5-5p4--4----4---4-------5-4---4-5---5---4---4-5---4-----4------|
D|---2--2---2---2-----2--------2--2--------2----2---2-------------2-------------2--------------------|
A|---------------------------------------------------------------------------------------------------|
E|--0---------------------0---0---------------0---------0-------0-----------0---------------------0--|

e|-----1---------1h3p1----------0-1-0h1p0h1p0---0----------*12--|
B|---------------------3----------------------0-----------------|
G|----2------2--------------------------------------------------|
D|---3---------3--------------2---------------------------------|
A|---------------------------2----------------------2-----------|
E|--1----3p1-------------1--0--------------------------0--------|

[Slow bit]

e|----------------------------------------------------------------------------------------------|
B|--3-1-0------------------------------------------3--1--0--0----------3--1--0--0-1-0----5------|
G|---------4---2---2--4--5------------4-5-5p2---------------------------------------------------|
D|---------2---2-----------3------2-------------------------------------------------------------|
A|---------0---0-----------------------------------------------------------------------------0--|
E|----------------------------0------------------1-------------1/3--0---------------------------|



e|--------------------------------------------------------------------------------|
B|----5-3-----------0----------3-----5-3-----------3--5-3----------5-3-----3---5--|
G|--------5-4h5p4h5p4--5p4---5---5-------5-4h5p4h5--------5------------4-5--------|
D|--------------------------------------------------------------------------------|
A|--3------------------------------3------------------------3--/5-2---------------|
E|--------------------------------------------------------------------------------|

[Medium Bit}

e|---------------------------------------------------------------------------------|
B|----------------------------------------1p0---------------------5-------5--------|
G|------2---4/5-------2---5p4-2-------2-------2---------5---5-4-------7-------5----|
D|----2---2---------2---2-----------3---3-------------5---5-----5---5---5---5---5--|
A|--0-----------0-0----------------------------------------------------------------|
E|------------------------------0-1-------------1/3-3------------------------------|

e|-------------------------------------------------------------------|
B|--------------------------------------------------3---5-----1---0--|
G|----5/4---4-0---0---0-4---5------5-5-----4------4-------5-----2----|
D|--------2-----2---2-----2---2--------2------2-------2--------------|
A|--3-------------3---------3---3----0---0------0---0-----0----------|
E|-------------------------------------------------------------------|

e|----------------------------------------------------------------|
B|--1------1--1-----1--3------3--3-----3---------3----------------|
G|----2---2-------2------4---4-------4-------4---------4----------|
D|------3-------3----------5-------5-------5-------5-------5------|
A|---------------------------------------------2---------2-----2--|
E|--1---------------1--3-----------------3-----------3-------3----|

e|-----------------------------------------------0-------------------------------|
B|--5---3----------------5---3---------------3-----1--1---0--1---1---1--3-----0--|
G|----0---0-5---4----5-----0---0-5---4---4\----0--------0------0----0-------0----|
D|------------5----5---------------5---5-----------------------------------------|
A|--3---3---3---3----------------------------0-----0---------0-----0------2------|
E|---------------------3-3---3---3---3-------------------------------------------|

e|--3-----3---3--------0-1-0------------3-----3/5--5-5----12-13-12-10----------------------------|
B|----1-0-------0--1-3-------3--1---0-1---1-0----------10-------------13-12/13-------------------|
G|--------------------------------2--------------------------------------------------------------|
D|--2-----2-----------------------------------------------10-------10----10------10--10-10-10\9--|
A|--------------------------------------0--------------------------------------------------------|
E|---------------------1-----1-------------------------------------------------------------------|

                                      
e|--12-13-12-10---------------------12-13-12-10------------------------------|
B|--------------13-12---------------------------13-12/13----[12]----3-----0--|
G|----------------------------------------------------------------------0----|
D|--9--------9-----9----9--9-9-9/10-10-------10----10------------------------|
A|--------------------------------------------------------------------2------|
E|---------------------------------------------------------------------------|

e|--3-----3-----3------------------------------5-3---3-------------|
B|----1-0---1-0---1-----1----5-3-------------------5----5-3-5p3----|
G|--------------------0----------5-4----4-5---------------------5--|
D|--2-----0---------------------------5----------------------------|
A|--------------3------------3-----3-----------3-----3-------------|
E|-----------------------------------------------------------------|

Any questions please ask.

Good luck and enjoy, peace.

************************************
|[ ]  Natural Harmonic
| *   Artificial Harmonic
| x   Dead note
| g   Grace note
| (n) Ghost note
| h   Hammer-on
| p   Pull-off
| r   Release
| >   Accented note
| t   Tapping
| b   Bend
| br  Bend release
| pb  Pre-bend
| pbr Pre-bend release
| /   Slide up
| \   Slide down
| ~   Vibrato
| s   Slap
| P   Pop
| PM  Palm mute
| TR  Trill
| N   Tremolo

************************************
Suggest correction
Give kudos to tab author, rate the tab!
1 2 3 4 5
comments
print report bad tab
guest
You may want to rate the tab now too:
select rating
Wanna post a correction for this tab? Suggest correction