Oops, an error
Loading. Please wait.

Into The Black chords

version 2
version 2

Whole song

451 views 33 this week
no commentswrite comment
1 2 3 4 5
1 last vote to show rating
add to favorites
×
Save as Personal and add changes to this tab that will be seen only by you. Learn more ›
×
You can save this tab as Personal to edit and correct it or add notes. All changes will be seen only by you. Learn more »
launch autoscroll
font size
0
reset
transpose
0
reset
display chords
guitar tuner
edit
Autoscroll
slow
fast
+/-
esc
set tempo
stop
Strumming
There is no strumming pattern for this song yet. and get +5 IQ
Chromatics - Into The Black

[Intro] 
  Am              G                F                              (x2)

E|-----|--------------------------|--1--1--1--|--1--1--1--|
B|-----|--------------------------|--1--1--1--|--1--1--1--|
G|-----|--------------------------|--2--2--2--|--2--2--2--|
D|-----|-----------0--------------|--3--3--3--|--3--3--3--|
A|--0--|--0--2--3-----2--0-----0--|--0--0--0--|--0--0--0--|
E|-----|--------------------3-----|-----------|-----------|

[Verse 1]
Am   G   F
My my, hey hey
Am       G           F
Rock'n roll is here to stay
C               Em              Am              F
It's better to burn out than to fade away
Am   G   F
My my, hey hey!

[Link]
Am   G   F (x2)

[Verse 2]
Am       G           F
Out of the blue into the black
Am       G           F
I give you this, but you pay for that
C               Em              Am              F
Once you're gone, you can't never come back
Am       G           F
When you're out of the blue, into the black!

Am   G   F(x4 instrumental solo)
E|-----|--------------------------|--1--1--1--|--1--1--1--|
B|-----|--------------------------|--1--1--1--|--1--1--1--|
G|-----|--------------------------|--2--2--2--|--2--2--2--|
D|-----|-----------0--------------|--3--3--3--|--3--3--3--|
A|--0--|--0--2--3-----2--0-----0--|--0--0--0--|--0--0--0--|
E|-----|--------------------3-----|-----------|-----------|


E|-----|--------------------------|--1--1--1--|--1--1--1--|
B|-----|--------------------------|--1--1--1--|--1--1--1--|
G|-----|--------------------------|--2--2--2--|--2--2--2--|
D|-----|-----------0--------------|--3--3--3--|--3--3--3--|
A|--0--|--0--2--3-----2--0-----0--|--0--0--0--|--0--0--0--|
E|-----|--------------------3-----|-----------|-----------|


E|-----|-----------------------------|--0--0--0--|--1--1--1--|
B|-----|-----------------------------|--1--1--1--|--1--1--1--|
G|-----|-----------------------------|--2--2--2--|--2--2--2--|
D|-----|-----------0---0--2--0----0--|--2--2--2--|--3--3--3--|
A|--0--|--0--2--3--------------3----0|--0--0--0--|--0--0--0--|
E|-----|-----------------------------|--0--0--0--|-----------|

E|-----|--------------------------|--1--1--1--|--1--1--1--|
B|-----|--------------------------|--1--1--1--|--1--1--1--|
G|-----|--------------------------|--2--2--2--|--2--2--2--|
D|-----|-----------0--------------|--3--3--3--|--3--3--3--|
A|--0--|--0--2--3-----2--0-----0--|--0--0--0--|--0--0--0--|
E|-----|--------------------3-----|-----------|-----------|

[Verse 3]
Am       G           F
The king is gone but he's not forgotten
Am       G           F
This is the story of Johnny Rotten
C               Em              Am            F
It's better to burn out than it is to rust
Am       G           F
The king is gone but he's not forgotten

[Link]
Am   G   F(x2)

[Verse 4]
Am   G   F
Hey hey, my my
Am       G          F
Rock and roll can never die
C               Em               Am              F
There's more to the picture than meets the eye
Am   G   F
Hey hey, my my

[Outro]
Am   G   F(x8 instrumental  outro)


            
            
Suggest correction
Creating personal tab
Creating personal tab
You can edit any tab online and save it as your Personal.

You can edit, replace or remove any tab part or add personal notes – all changes will be seen only by you.

Personal tabs can be accessed anytime from any device, even offline.
Learn more »
Give kudos to tab author, rate the tab!
1 2 3 4 5
comments
print report bad tab
guest
You may want to rate the tab now too:
select rating
Wanna post a correction for this tab? Suggest correction