Oops, an error
Loading. Please wait.

Needy Girl bass

by Chromeo
4,040 views 1 this week
no commentswrite comment
1 2 3 4 5
2 more votes to show rating
add to favorites
×
Save as Personal and add changes to this tab that will be seen only by you. Learn more ›
×
You can save this tab as Personal to edit and correct it or add notes. All changes will be seen only by you. Learn more »
launch autoscroll
font size
0
reset
guitar tuner
edit
Autoscroll
slow
fast
+/-
esc
set tempo
stop
Difficulty
Song: Needy girl
Artist: Chromeo
Tuning: Standard 
Tabbed By: Webbo
---------------------------------------------------------------------------------------

.= staccato (shorten note)
~= let ring
h= hammer on
p= pull off
s= slap
pl= pluck
Intro:


(this bits meant for six string guitar but sounds cool on bass too)


e|----------------------------------------------|
B|----------------------------------------------|
G|----------------3-----------------------------|
D|-------3.-3.-3p0---5~-------------------------|
A|---3h5----------------------------------------|
e|----------------------------------------------|



(Also this bit is just like a substitute for the synth keyboard you don't have to include it.)

G|---------3-3-2--------------3-3-2----------------3-3-2-----------------3-3-2--------|
D|--5p3h5p3-----3.-3.-5p3h5p3-------3.-3.--1p0h1p0-------3.-3.--1p0h1p0---------3.-3.-|
A|------------------------------------------------------------------------------------|
E|------------------------------------------------------------------------------------|



(The first and only slap bass bits (Y))i think its in the breakdown of the song.

(this little bass riff comes in at other times too so just listen for when he plays it.)

G|--------------------------------------------|
D|------3plh5-------------3plh5---------------|[x4]
A|--------------------------------------------|
E|-------------s3-s3--------------s3-s3-------|



(This bits at the end)

G|-------------------------------------------------|
D|-------------------------------------------------|
A|-------------------------------------3plh5p3-----|
E|-----s3--s3--s3--sx--s3-s3-s3s3-s3-s3--------s3--|

Funky song to play along to enjoy!  x


--------------------------------------------------------------------------------------

            
            
Suggest correction
Creating personal tab
Creating personal tab
You can edit any tab online and save it as your Personal.

You can edit, replace or remove any tab part or add personal notes – all changes will be seen only by you.

Personal tabs can be accessed anytime from any device, even offline.
Learn more »
Give kudos to tab author, rate the tab!
1 2 3 4 5
comments
print report bad tab
guest
Wanna post a correction for this tab? Suggest correction