Oops, an error
Loading. Please wait.

New York Ny Bass Tab

version 1
version 1

Whole song

Interactive

778 views 1 this week
2 commentsread comments
1 2 3 4 5
1 last vote to show rating
add to favorites
launch autoscroll
font size
0
reset
guitar tuner
Autoscroll
slow
fast
+/-
esc
set tempo
stop
Help us to improve Ultimate-Guitar.com Take our survey!
×
Author
Difficulty
novice
-------------------------------------------------------------------------------
			     New York Ny - Chronic future
-------------------------------------------------------------------------------

Tabbed By :BreAdOwn396
e-mail:mlgemo@yahoo.com

Tuning:standard
intro x2
G|--------------------------------------------/6-434------------------------|
D|---------------------------------------------------4----------------------|
A|--2----2------4-----4------6----6-----4664--------------------------------|
E|--------------------------------------------------------------------------|
verse (repeat as needed)
G|--------------------------------------------------------------------------|
D|--------------------------------------------------------------------------|
A|--2-2-222--4-4-444-6-6-666-666-666-2-2-222-4-4-444-6-6-666-666-666--------|
E|--------------------------------------------------------------------------|
chourus
G|-------------------------------------------------------------------------|
D|-------------------------------------------------------------------------|
A|--22222222-444444444-66666666-66666666-----------------------------------|
E|-------------------------------------------------------------------------|
bridge
G|-------------------------------------------------------------------------|
D|-------------------------------------------------------------------------|
A|-----22-44-66-66-22-44-66-66---6----------6------------------------------|
E|-------------------------------------------------------------------------|
chourus (as needed)
G|-------------------------------------------------------------------------|
D|-------------------------------------------------------------------------|
A|---222222222-444444444-666666666666666-----------------------------------|
E|-------------------------------------------------------------------------|
outro
G|-------------------------------------4-----------333---------------------|
D|-----------------------------------4---4--434343-----111-----------------|
A|---22222222-44444444-66666666666-2-------4-------------------------------|
E|-------------------------------------------------------------------------|


this isnt every note in the whole song just a breif outline to guide you so you get the point

| /  slide up
| \  slide down
| h  hammer-on
| p  pull-off
| ~  vibrato
| +  harmonic
| x  Mute note
===============================================================================
Suggest correction
Give kudos to tab author, rate the tab!
1 2 3 4 5
comments
print report bad tab
2 comments total.
0 reply
BreAkdOwn396 83 Aug 08, 2007 11:40 AM

okay okay before anyone makes any comments this was tabbed by rickmeydrick not me. second off his tab as guitar pro and in much more detail i just made it more simple. this is a GUIDELINE not a full song. thank you and enjoy

0 reply
emo bassist 10 Aug 08, 2007 12:27 PM

lil confusing but it works

guest
You may want to rate the tab now too:
select rating
Wanna post a correction for this tab? Suggest correction