Oops, an error
Loading. Please wait.

Broken Jade guitar pro

4,741 views 1 this week
1 commentread comment
1 2 3 4 5
1 last vote to show rating
add to favorites
guitar tuner
Autoscroll
slow
fast
+/-
esc
set tempo
stop
"Broken Jade"
demo version
Play now

or get full version for Free

×
Get full version now!
Learn and play this song
in Tab Pro
Try for free

or get $10 off Welcome Bonus

Get welcome bonus
Get access to Tab Pro version of “Broken Jade”!
Tab Pro is a premium guitar tab service, available on PC, Mac, iOS and Android
TRY FOR FREE
Your download will start in 7 seconds
×
Like this song? We have more! Follow us on Facebook for daily tips, lessons and other guitar-related content.
To download “Broken Jade” Guitar Pro tab click button below
Please note that you must have Guitar Pro software installed on your
computer in order to view this file.
Suggest correction
Give kudos to tab author, rate the tab!
1 2 3 4 5
comments
report bad tab
1 comment total.
0 reply
GJ Solano 224 Feb 24, 2014 04:21 PM

Great tab, but the interlude is played like this:

B|------------------------------------------------------------|
G|------------------------------------------------------------|
D|------------------------------------------------------------| x 3
A|-----------------------------9-----9-7-----7----7-----------|
E|-7-----7----7-10-----10---10--------------------------------|
B|---0-0---0-------0-0----0------0-0-----0-0----0-------------|
B|------------------------------------------------------------|
G|------------------------------------------------------------|
D|------------------------------------------------------------|
A|-----------------------------9-----9------9-10--9--7--------|
E|-7-----7----7-10-----10---10--------------------------------|
B|---0-0---0-------0-0----0------0-0----0---------------------|

Cheers!!

guest
You may want to rate the tab now too:
select rating