Oops, an error
Loading. Please wait.

Limbo Rock chords

version 1
version 1

Whole song

18,395 views 27 this week
2 commentsread comments
1 2 3 4 5
1 last vote to show rating
add to favorites
×
Save as Personal and add changes to this tab that will be seen only by you. Learn more ›
×
You can save this tab as Personal to edit and correct it or add notes. All changes will be seen only by you. Learn more »
launch autoscroll
font size
0
reset
transpose
0
reset
display chords
guitar tuner
edit
Autoscroll
slow
fast
+/-
esc
set tempo
stop
Strumming
There is no strumming pattern for this song yet. and get +5 IQ
Limbo Rock:Chubby Checker.
#2 in 1962.

***Original song is in G#...Capo 6th fret and play in D.
   Played it this way to get that old 'Limbo' sound.**

---------------------------------------------|
---------------------------------------------|
-----------2-2-2----2-------------2----------|
--0-0-0-4--------4-----0-0-4-2-2----4-0------|
---------------------------------------------|
---------------------------------------------|

---------------------------------------------|
---------------------------------------------|
-----------2-2-2----2-------------2----------|
--0-0-0-4--------4-----0-0-4-2-2----4-0------|
---------------------------------------------|
---------------------------------------------|


----------------------------------------------|
--------------------------3-3-3--0------------|
---4-4-0-4-4-4-0-4--2-2-2-----------2---------|
----------------------------------------------|
----------------------------------------------|
----------------------------------------------|


----------------------------------------------|
----------------------------------------------|
-----------2-2-2-----2-----------2------------|
--0-0-0-4--------4-----0-0-4-2-2---4-0--------|
----------------------------------------------|
----------------------------------------------|

#1.
D                              A               D
Every Limbo boy and girl..all around the Limbo world.
D                             A               D
Gonna do the Limbo Rock..all around the Limbo Clock.
        G                              D           A
Jack be limber, Jack be quick..Jack go under Limbo stick.
A                                      D
All around the Limbo Clock..hey, let's do the Limbo Rock.

(SPOKEN:AD Lib:)
D
Limbo lower now..Limbo lower now..how low, can you go?

#2.
D                                          A             D
First you spread your Limbo feet..then you move to Limbo beat.
D                                  A            D
Limbo ankle, Limbo knee..bend back like a Limbo tree.
        G                              D           A
Jack be limber, Jack be quick..Jack go under Limbo stick.
A                                      D
All around the Limbo clock..hey, let's do the Limbo Rock.

(INTERLUDE:)
D                           A           D
La la la la la la la..la la la la la la la..
D                           A           D
La la la la la la la..la la la la la la la..
      G                     D           A
La la la la la la la..la la la la la la la..
A                           D
La la la la la la la..la la la la la la la.

#2.
D                                    A             D
Get yourself a Limbo girl..give that Chick a Limbo whirl.
D                                    A             D
There's a Limbo moon above..you will fall in Limbo love.
        G                              D           A
Jack be limber, Jack be quick..Jack go under Limbo stick.
A                                      D
All around the Limbo clock..hey, let's do the Limbo Rock.

(SPOKEN:Ad Lib:)
D
Don't move that Limbo bar..you'll be a Limbo star.

How low, can you go?


OUTRO:(WHISTLING:As Interlude:) D A D..D A 
D..G D A..A D


A sixties smash from Kraziekhat.

            
            
Suggest correction
Creating personal tab
Creating personal tab
You can edit any tab online and save it as your Personal.

You can edit, replace or remove any tab part or add personal notes – all changes will be seen only by you.

Personal tabs can be accessed anytime from any device, even offline.
Learn more »
Give kudos to tab author, rate the tab!
1 2 3 4 5
comments
print report bad tab
2 comments total.
0 reply
Fepo 807 Nov 07, 2013 09:39 PM

Sounds very well :) Thanx

0 reply
Kraziekhat 64,745 Nov 07, 2013 11:06 PM

You're welcome, mate. KK.

guest
You may want to rate the tab now too:
select rating
Wanna post a correction for this tab? Suggest correction