Oops, an error
Loading. Please wait.

Johnny B Goode Bass Tab

version 2
60,477 views 144 this week
no commentswrite comment
1 2 3 4 5
x 12
add to favorites
launch autoscroll
font size
0
reset
guitar tuner
×
Best way to learn
"Johnny B Goode"
Autoscroll
slow
fast
+/-
esc
set tempo
stop
x2
G|----------------------------------------------------------|
D|---------4-7-4--------------------------------------------|
A|-----4-7-------7-4----------------------------------------|
E|---5------------------------------------------------------|

G|---------4-7-4----------------|
D|-----4-7-------7-4------------| 
A|---5--------------------------|
E|------------------------------|

G|---------6-9-6----------------|
D|-----6-9-------6-9------------|
A|---7--------------------------|
E|------------------------------|
Suggest correction
comments
print report bad tab
guest
You may want to rate the tab now too:
select rating
Wanna post a correction for this tab? Suggest correction