Oops, an error
Loading. Please wait.

Johnny B Goode Bass

version 2
8,225 views 3 this week
no commentswrite comment
1 2 3 4 5
1 last vote to show rating
add to favorites
launch autoscroll
font size
0
reset
guitar tuner
backing track
0:00
0:00
×
Best way to learn
"Johnny B Goode"
Autoscroll
slow
fast
+/-
esc
set tempo
stop
This is my first TAB. I listen, and after adapted, this version by youtube. Thanks at colinessex

A# A# D# A# F A#

G|--------|--------|--------|--------|---------------------|---------------------|
D|--------|--------|--------|--------|---------------------|------5----8----5----|
A|--------|--------|--------|--------|---------------------|-6-------------------|
E|--------|--------|--------|-6------|-6---------6----6----|---------------------|


G|---------------------|---------------------|---------------------|---------------------|
D|------5----8----5----|---------------------|---------------------|------7----10---7----|
A|-6-------------------|------5----8----5----|------5----8----5----|-8-------------------|
E|---------------------|-6-------------------|-6-------------------|---------------------|

                                                                    Verse
G|---------------------|---------------------|---------------------|---------------------|
D|------7----10---7----|-8----7----5---------|---------------------|----------------5----|
A|-8-------------------|----------------8----|-6----5--------------|------5----8---------|
E|---------------------|---------------------|-----------8----8----|-6-------------------|


G|---------------------|---------------------|---------------------|----------------5----|
D|-8----5--------------|----------------5----|-8----5--------------|------5----8---------|
A|-----------8----5----|------5----8---------|-----------8----5----|-6-------------------|
E|---------------------|-6-------------------|---------------------|---------------------|


G|-8----5--------------|---------------------|---------------------|----------------7----|
D|-----------8----5----|----------------5----|-8----5--------------|------7----10--------|
A|---------------------|------5----8---------|-----------8----5----|-8-------------------|
E|---------------------|-6-------------------|---------------------|---------------------|

                                                                    Chorus
G|-10---7--------------|---------------------|---------------------|---------------------|
D|-----------10---7----|-8----7----5---------|---------------------|----------------5----|
A|---------------------|----------------8----|-6----5--------------|------5----8---------|
E|---------------------|---------------------|-----------8----8----|-6-------------------|


G|---------------------|---------------------|---------------------|----------------5----|
D|-8----5--------------|----------------5----|-8----5--------------|------5----8---------|
A|-----------8----5----|------5----8---------|-----------8----5----|-6-------------------|
E|---------------------|-6-------------------|---------------------|---------------------|


G|-8----5--------------|---------------------|---------------------|----------------7----|
D|-----------8----5----|----------------5----|-8----5--------------|------7----10--------|
A|---------------------|------5----8---------|-----------8----5----|-8-------------------|
E|---------------------|-6-------------------|---------------------|---------------------|

                                                                    Verse
G|-10---7--------------|---------------------|---------------------|---------------------|
D|-----------10---7----|-8----7----5---------|---------------------|----------------5----|
A|---------------------|----------------8----|-6----5--------------|------5----8---------|
E|---------------------|---------------------|-----------8----8----|-6-------------------|


G|---------------------|---------------------|---------------------|----------------5----|
D|-8----5--------------|----------------5----|-8----5--------------|------5----8---------|
A|-----------8----5----|------5----8---------|-----------8----5----|-6-------------------|
E|---------------------|-6-------------------|---------------------|---------------------|


G|-8----5--------------|---------------------|---------------------|----------------7----|
D|-----------8----5----|----------------5----|-8----5--------------|------7----10--------|
A|---------------------|------5----8---------|-----------8----5----|-8-------------------|
E|---------------------|-6-------------------|---------------------|---------------------|

                                                                    Chorus
G|-10---7--------------|---------------------|---------------------|---------------------|
D|-----------10---7----|-8----7----5---------|---------------------|----------------5----|
A|---------------------|----------------8----|-6----5--------------|------5----8---------|
E|---------------------|---------------------|-----------8----8----|-6-------------------|


G|---------------------|---------------------|---------------------|----------------5----|
D|-8----5--------------|----------------5----|-8----5--------------|------5----8---------|
A|-----------8----5----|------5----8---------|-----------8----5----|-6-------------------|
E|---------------------|-6-------------------|---------------------|---------------------|


G|-8----5--------------|---------------------|---------------------|----------------7----|
D|-----------8----5----|----------------5----|-8----5--------------|------7----10--------|
A|---------------------|------5----8---------|-----------8----5----|-8-------------------|
E|---------------------|-6-------------------|---------------------|---------------------|

                                                                    Solo
G|-10---7--------------|---------------------|---------------------|--------|--------|
D|-----------10---7----|-8----7----5---------|---------------------|--------|--------|
A|---------------------|----------------8----|-6----5--------------|--------|--------|
E|---------------------|---------------------|-----------8----8----|-6------|-6------|


G|-------------|---------------------|---------------------|---------------------|
D|-------------|---------------------|------5----8----5----|------5----8----5----|
A|-------------|---------------------|-6-------------------|-6-------------------|
E|-6-----6-----|-6----6----6----6----|---------------------|---------------------|


G|---------------------|---------------------|---------------------|---------------------|
D|---------------------|---------------------|------7----10---7----|------7----10---7----|
A|------5----8----5----|------5----8----5----|-8-------------------|-8-------------------|
E|-6-------------------|-6-------------------|---------------------|---------------------|

                                              Solo
G|---------------------|---------------------|--------|--------|-------------|-------------------|
D|-8----7----5---------|---------------------|--------|--------|-------------|-------------------|
A|----------------8----|-6----5--------------|--------|--------|-------------|-------------------|
E|---------------------|-----------8----8----|-6------|-6------|-6-----6-----|-6----6----6----6--|


G|---------------------|---------------------|---------------------|---------------------|
D|------5----8----5----|------5----8----5----|---------------------|---------------------|
A|-6-------------------|-6-------------------|------5----8----5----|------5----8----5----|
E|---------------------|---------------------|-6-------------------|-6-------------------|


G|---------------------|---------------------|---------------------|---------------------|
D|------7----10---7----|------7----10---7----|-8----7----5---------|---------------------|
A|-8-------------------|-8-------------------|----------------8----|-6----5--------------|
E|---------------------|---------------------|---------------------|-----------8----8----|

  Verse
G|---------------------|---------------------|---------------------|---------------------|
D|----------------5----|-8----5--------------|----------------5----|-8----5--------------|
A|------5----8---------|-----------8----5----|------5----8---------|-----------8----5----|
E|-6-------------------|---------------------|-6-------------------|---------------------|


G|----------------5----|-8----5--------------|---------------------|---------------------|
D|------5----8---------|-----------8----5----|----------------5----|-8----5--------------|
A|-6-------------------|---------------------|------5----8---------|-----------8----5----|
E|---------------------|---------------------|-6-------------------|---------------------|


G|----------------7----|-10---7--------------|---------------------|---------------------|
D|------7----10--------|-----------10---7----|-8----7----5---------|---------------------|
A|-8-------------------|---------------------|----------------8----|-6----5--------------|
E|---------------------|---------------------|---------------------|-----------8----8----|

  Chorus
G|---------------------|---------------------|---------------------|---------------------|
D|----------------5----|-8----5--------------|----------------5----|-8----5--------------|
A|------5----8---------|-----------8----5----|------5----8---------|-----------8----5----|
E|-6-------------------|---------------------|-6-------------------|---------------------|


G|----------------5----|-8----5--------------|---------------------|---------------------|
D|------5----8---------|-----------8----5----|----------------5----|-8----5--------------|
A|-6-------------------|---------------------|------5----8---------|-----------8----5----|
E|---------------------|---------------------|-6-------------------|---------------------|


G|----------------7----|-10---7--------------|---------------------|---------------------|
D|------7----10--------|-----------10---7----|-8----7----5---------|---------------------|
A|-8-------------------|---------------------|----------------8----|-6----5--------------|
E|---------------------|---------------------|---------------------|-----------8----8----|


G|-------------|
D|-------------|
A|-------------|
E|-6-----------|
Suggest correction
Give kudos to tab author, rate the tab!
1 2 3 4 5
comments
print report bad tab
guest
You may want to rate the tab now too:
select rating
Wanna post a correction for this tab? Suggest correction