Oops, an error
Loading. Please wait.

Johnny B Goode Bass

version 3
34,073 views 9 this week
1 commentread comment
1 2 3 4 5
x 4
add to favorites
launch autoscroll
font size
0
reset
guitar tuner
backing track
0:00
0:00
×
Best way to learn
"Johnny B Goode"
Autoscroll
slow
fast
+/-
esc
set tempo
stop
Author
Difficulty
intermediate
Song: Johnny B. Goode

Band: Chuck Berry

Bassist: Willie Dixon

Tabbed By: Steven S.
steven@liquisoft.com

This is simply my interpretation of the song. When my band covers this song
this is how I play it, and it flows great.

[Intro]
[0:00 - 0:17] :

G |-----------------|
D |-----------------|
A |-----------------|
E |--------6--------|

G |---------------------    ---------55-66-55---------------------------|
D |--------55-66-55-----    ----55-88--------88-55--------55-66-55------|
A |---55-88--------88-55 x2 -66---------------------55-88---------88-55-|
E |-66------------------    ----------------------66--------------------|

[Verse / Chorus]
[0:18 - 1:26] :

G |---------------------    ---------55-66-55---------------------------|
D |--------55-66-55-----    ----55-88--------88-55--------55-66-55------|
A |---55-88--------88-55 x2 -66---------------------55-88---------88-55-|
E |-66------------------    ----------------------66--------------------|

G |----------------------------------------|
D |---55-66-55------------------55-66------|  All x4
A |-88--------88-77-55-33--55-88-----88-55-|
E |----------------------66----------------|

[Solo]
[1:27 - 2:00] :

G |---------------------------------|
D |---------------------------------|
A |---------------------------------|
E |-6-------6-------6---6---6-6-6-6-|

G |---------------------    ---------55-66-55---------------------------|
D |--------55-66-55-----    ----55-88--------88-55--------55-66-55------|   All x2
A |---55-88--------88-55 x2 -66---------------------55-88---------88-55-|
E |-66------------------    ----------------------66--------------------|

[Verse / Chorus] 
[1:27 - 2:32] :

G |---------------------    ---------55-66-55---------------------------|
D |--------55-66-55-----    ----55-88--------88-55--------55-66-55------|
A |---55-88--------88-55 x2 -66---------------------55-88---------88-55-|
E |-66------------------    ----------------------66--------------------|

G |----------------------------------------|
D |---55-66-55------------------55-66------|  All x2
A |-88--------88-77-55-33--55-88-----88-55-|
E |----------------------66----------------|

[Outro]
[2:33 - 2:39]

G |-------------------------|
D |-------------------------|
A |-------------------------|
E |-6-33-6-33-6-33-6~ ------|
Suggest correction
comments
print report bad tab
1 comment total.
0 reply
rcl2010 52 Jul 31, 2013 12:47 PM

Very Close - typical old school rock & roll pattern

guest
You may want to rate the tab now too:
select rating
Wanna post a correction for this tab? Suggest correction