Oops, an error
Loading. Please wait.

Two And A Half Men Bass Tab

version 1
version 1

Whole song

Interactive

2,021 views 1 this week
no commentswrite comment
1 2 3 4 5
please rate
add to favorites
launch autoscroll
font size
0
reset
guitar tuner
Autoscroll
slow
fast
+/-
esc
set tempo
stop
Help us to improve Ultimate-Guitar.com Take our survey!
×
Difficulty
novice
-------------------------------------------------------------------------------
			     TWO AND A HALF MEN THEME SONG - Chuck Lorre
-------------------------------------------------------------------------------



Tuning: Standard (EADG)
This is Charlie's voice

G|--------------------------------------|
D|--------------------------------------|
A|---3---------------3--3---------------|
E|-------5---3---5----------5---3---5---|

G|--------------------------------------|
D|--------------------------------------|
A|---3---------------3--3---------------|
E|-------5---3---5----------5---3---5---|

G|--------------------------------------|
D|--------------------------------------|
A|-3~~----------------------------------|
E|-----0~~--1~~--2~~--3~~--0~~----------|


G|--------------------------------------|
D|--------------------------------------|
A|---3---------------3--3---------------|
E|-------5---3---5----------5---3---5---|

G|--------------------------------------|
D|--------------------------------------|
A|---3---------------3--3---------------|
E|-------5---3---5----------5---3---5---|

G|--------------------------------------|
D|--------------------------------------|
A|-/7-----------------------------------|
E|--------------------------------------|

| /  slide up
| \  slide down
| h  hammer-on
| p  pull-off
| ~  vibrato
| +  harmonic
| x  Mute note
===============================================================================
Suggest correction
Give kudos to tab author, rate the tab!
1 2 3 4 5
comments
print report bad tab
guest
You may want to rate the tab now too:
select rating
Wanna post a correction for this tab? Suggest correction