Oops, an error
Loading. Please wait.

Two And A Half Men Tab

version 1
version 1

Whole song

Interactive

33,110 views 24 this week
no commentswrite comment
1 2 3 4 5
excellent!
x 5
add to favorites
launch autoscroll
font size
0
reset
how to read this tab
guitar tuner
Autoscroll
slow
fast
+/-
esc
set tempo
stop
Help us to improve Ultimate-Guitar.com Take our survey!
×
Author
Two And A Half Men Main Theme
Music by Chuck Lorre (http://www.chucklorre.com/)
Tabbed by nacphones


         | 1 + 2 + 3 + 4 + | 1 + 2 + 3 + 4 + |
        E|-----------------|-----------------|
        H|-----------------|-----------------|
Charlie G|-----------------|-----------------|
        D|-----------------|-----------------|
        A|-3-------------3-|---3-------------|
        E|-----5---3---5---|-----5---3---5---|



         | 1 + 2 + 3 + 4 + | 1 + 2  +  3  + 4 + |
        E|-----------------|--------------------|
        H|-----------------|--------------------|
Charlie G|-----------------|--------------------|
        D|-----------------|--------------------|
        A|-3-------------3-|---3----------------|
        E|-----5---3---5---|-----5-----3----5---|
         |                                      |
         |                                      |
         | 1 + 2 + 3 + 4 + | 1 + 2  +  3  + 4 + |
        E|-----------------|--------------------|
        H|-----------------|--------------------|
   Alan G|-----------------|--------------------|
        D|/10~-------------|--------------------|
        A|-----------------|----12-10-12-10-7---|
        E|-----------------|--------------------|



         | 1 + 2 + 3 + 4 + | 1 + 2 + 3 + 4 + | 1 + 2 + 3 + 4 + |
        E|-----------------|-----------------|-----------------|
        H|-----------------|-----------------|-----------------|
Charlie G|-----------------|-----------------|-----------------|
        D|-----------------|-----------------|-----------------|
        A|-3---------------|-----------------|-----------------|
        E|---------0-------|-1-------2-------|-3-------0-------|
         |                                   |                 |
         |                                   |                 |
         | 1 + 2 + 3 + 4 + | 1 + 2 + 3 + 4 + | 1 + 2 + 3 + 4 + |
        E|-----------------|-----------------|-----------------|
        H|-----------------|-----------------|-----------------|
   Alan G|-----------------|-----------------|-----------------|
        D|-----------------|-----------------|-----------------|
        A|-3-------7-------|-8-------9-------|10-------7-------|
        E|-----------------|-----------------|-----------------|
         |                                   |                 |
         |                                   |                 |
         | 1 + 2 + 3 + 4 + | 1 + 2 + 3 + 4 + | 1 + 2 + 3 + 4 + |
        E|-----------------|---------------8-|-----------------|
        H|---------8--11---|10-8-6------10---|-8---------------|
   Jake G|-5---9-----------|-----------------|-------9-10--7---|
        D|-----------------|-----------------|-----------------|
        A|-----------------|-----------------|-----------------|
        E|-----------------|-----------------|-----------------|



 | 1 + 2 + 3 + 4 + | 1 + 2 + 3 + 4 + | 1 + 2 + 3 + 4 + | 1 + 2 + 3 + 4 + |
E|-----------------|-----------------|-----------------|-----------------|
H|-----------------|-----------------|-----------------|-----------------|
G|-----------------|-----------------|-----------------|-----------------|
D|-----------------|-----------------|-----------------|-----------------|
A|-3-------------3-|---3-------------|-3-------------3-|---3-------------|
E|-----5---3---5---|-----5---3---5---|-----5---3---5---|-----5---3---5---|
 |                 |                 |                 |                 |
 |                 |                 |                 |                 |
 | 1 + 2 + 3 + 4 + | 1 + 2 + 3 + 4 + | 1 + 2 + 3 + 4 + | 1 + 2 + 3 + 4 + |
E|-----------------|-----------------|-----------------|-----------------|
H|-----------------|-----------------|-----------------|-----------------|
G|-----------------|-----------------|-----------------|-----------------|
D|10------------10-|--10-------------|10------------10-|--10-------------|
A|----12--13--13---|----12--13--13---|----12--13--13---|----12--13--13---|
E|-----------------|-----------------|-----------------|-----------------|
 |                 |                 |                 |                 |
 |                 |                 |                 |                 |
 | 1 + 2 + 3 + 4 + | 1 + 2 + 3 + 4 + | 1 + 2 + 3 + 4 + | 1 + 2 + 3 + 4 + |
E|-----------------|-----------------|-----------------|-----------------|
H|-----------------|-----------------|-----------------|-------------8---|
G|-----------------|---------9b12~~~~|r9---------------|-----------------|
D|10~--------------|-----------------|-----------------|-----------------|
A|-----------------|-----------------|-----------------|-----------------|
E|-----------------|-----------------|-----------------|-----------------|



 | 1 + 2 + 3 + 4 + |
E|-----------------|
H|-----------------|
G|-----------------|
D|-----------------|
A|----/7-----------|
E|-----------------|
 |                 |
 |                 |
 | 1 + 2 + 3 + 4 + |
E|-----------------|
H|-----------------|
G|-----------------|
D|---/14-----------|
A|-----------------|
E|-----------------|
 |                 |
 |                 |
 | 1 + 2 + 3 + 4 + |
E|-----------------|
H|9b10~------------|
G|-----------------|
D|-----------------|
A|-----------------|
E|-----------------|
Suggest correction
comments
print report bad tab
guest
You may want to rate the tab now too:
select rating
Wanna post a correction for this tab? Suggest correction