Oops, an error
Loading. Please wait.

Feels So Good tab

version 1
version 1

Whole song

  • This is the ultimate version all your tabs are inc... Show more

Interactive

1,582 views 42 this week
no commentswrite comment
1 2 3 4 5
1 last vote to show rating
add to favorites
×
Save as Personal and add changes to this tab that will be seen only by you. Learn more ›
×
You can save this tab as Personal to edit and correct it or add notes. All changes will be seen only by you. Learn more »
launch autoscroll
font size
0
reset
how to read this tab
guitar tuner
backing track
0:00
0:00
edit
Autoscroll
slow
fast
+/-
esc
set tempo
stop
 |-First time only|
 |                |
 |C9sus4          |F           C/E  Dm7              Gm7              C       C/Bb     Am7
e|----------------|----------------|----------------|----------------|----------------|----------------|
B|----------------|-----------86-56|----------------|-------------656|5---------------|---------8-6-5-6|
G|----------------|5---------------|-----------5----|----------------|----5-------5---|----------------|
D|7-------8-------|----------------|-------------8-7|8---------------|--------7------7|----------------|
A|----------------|----------------|----------------|----------------|----------------|----------------|
E|----------------|----------------|----------------|----------------|----------------|----------------|

  Dm7              Gm7              Em7(b5) A7(#5)   Dm7              Ebmaj9           Dm7 
e|----------------|-----------5-6-5|--------5-------|--5-------------|----------------|----------------|
B|----------------|----------------|8-----------8---|8--6------------|----------------|----------------|
G|-----------5----|----------------|----------------|----------------|----------------|----------------|
D|-------------8-7|5---------------|------7---------|----------------|----------------|----------------|
A|----------------|----------------|----------------|----------------|----------------|----------------|
E|----------------|----------------|----------------|----------------|----------------|----------------|

  Ebmaj9           F                Eb(add 9)        Dm          Dm/C Bbmaj7      F/A  Gm7
e|----------------|----------------|----------------|----------------|---------------8|8---6---5---6---|
B|-----------8-6-8|6----------8-6-8|6----------8-6-8|6-----------6-8-|6---------------|--------------8-|
G|----------------|----------------|----------------|---------5-7-7-7|-------------5--|----------------|
D|----------------|----------------|----------------|----------------|----------------|----------------|
A|----------------|----------------|----------------|----------------|----------------|----------------|
E|----------------|----------------|----------------|----------------|----------------|----------------|

  Gm  Am  Bb  B°7  C7sus4           F             D7               Gm7              C7sus4           F
e|----------------|--------6-5-6-5-|--5-------------|----------5---6-|----------------|----------------|
B|----------------|-----------8---8|8--6------------|--4---3---------|----------------|----------------|
G|----------------|------5---------|--------2-3-4-5-|----------------|----------2-3-2-|--3-------3---2-|
D|----------------|----------------|----------------|----------------|--------5-------|------5---------|
A|----------------|----------------|----------------|----------------|----------------|----------------|
E|----------------|----------------|----------------|----------------|----------------|----------------|

                                                                     |-Last time only-|
                                                                     |                |
                D7               Gm7                 C9sus4          |Fmaj7           |
e|----------------|----------5---6-|----------------|----------------|----------------|
B|----------------|--4---3---------|----------------|----------------|----------------|
G|--------2-3-4-5-|----------------|----------2-3-2-|--------3-------|5---------------|
D|----------------|----------------|--------5-------|----------------|----------------|
A|----------------|----------------|----------------|----------------|----------------|
E|----------------|----------------|----------------|----------------|----------------|




************************************
Written by Chuck Mangione
Album: "Feels So Good"
Year: 1977

The melody is written out with chord
changes. Each - represents a 16th
note. The song is in 4/4 time.

************************************

            
            
Suggest correction
Creating personal tab
Creating personal tab
You can edit any tab online and save it as your Personal.

You can edit, replace or remove any tab part or add personal notes – all changes will be seen only by you.

Personal tabs can be accessed anytime from any device, even offline.
Learn more »
Give kudos to tab author, rate the tab!
1 2 3 4 5
comments
print report bad tab
guest
You may want to rate the tab now too:
select rating
Wanna post a correction for this tab? Suggest correction